999
"DXF R12 Output" (www.mydxf.blogspot.com)
 0 
SECTION
 2 
HEADER
 9 
$ACADVER
 1 
AC1009
 9 
$EXTMIN
 10 
 0 
 20 
 0 
 9 
$EXTMAX
 10 
 8.5 
 20 
 11 
 0 
ENDSEC
 0 
SECTION
 2 
ENTITIES
0
LINE
8
Layer 1
10
209.614089
20
34.885632
11
208.348234
21
34.755954
0
LINE
8
Layer 1
10
208.348234
20
34.755954
11
207.165248
21
34.384566
0
LINE
8
Layer 1
10
207.165248
20
34.384566
11
206.091611
21
33.797935
0
LINE
8
Layer 1
10
206.091611
20
33.797935
11
205.153802
21
33.022528
0
LINE
8
Layer 1
10
205.153802
20
33.022528
11
204.378301
21
32.084814
0
LINE
8
Layer 1
10
204.378301
20
32.084814
11
203.791588
21
31.011259
0
LINE
8
Layer 1
10
203.791588
20
31.011259
11
203.420141
21
29.828332
0
LINE
8
Layer 1
10
203.420141
20
29.828332
11
203.290441
21
28.562499
0
LINE
8
Layer 1
10
203.290441
20
28.562499
11
203.420130
21
27.296680
0
LINE
8
Layer 1
10
203.420130
20
27.296680
11
203.791548
21
26.113711
0
LINE
8
Layer 1
10
203.791548
20
26.113711
11
204.378227
21
25.040076
0
LINE
8
Layer 1
10
204.378227
20
25.040076
11
205.153696
21
24.102259
0
LINE
8
Layer 1
10
205.153696
20
24.102259
11
206.091487
21
23.326744
0
LINE
8
Layer 1
10
206.091487
20
23.326744
11
207.165129
21
22.740015
0
LINE
8
Layer 1
10
207.165129
20
22.740015
11
208.348153
21
22.368556
0
LINE
8
Layer 1
10
208.348153
20
22.368556
11
209.614089
21
22.238851
0
LINE
8
Layer 1
10
209.614089
20
22.238851
11
210.879967
21
22.368544
0
LINE
8
Layer 1
10
210.879967
20
22.368544
11
212.062916
21
22.739975
0
LINE
8
Layer 1
10
212.062916
20
22.739975
11
213.136473
21
23.326669
0
LINE
8
Layer 1
10
213.136473
20
23.326669
11
214.074177
21
24.102153
0
LINE
8
Layer 1
10
214.074177
20
24.102153
11
214.849567
21
25.039952
0
LINE
8
Layer 1
10
214.849567
20
25.039952
11
215.436178
21
26.113592
0
LINE
8
Layer 1
10
215.436178
20
26.113592
11
215.807551
21
27.296599
0
LINE
8
Layer 1
10
215.807551
20
27.296599
11
215.937222
21
28.562499
0
LINE
8
Layer 1
10
215.937222
20
28.562499
11
215.807539
21
29.828413
0
LINE
8
Layer 1
10
215.807539
20
29.828413
11
215.436139
21
31.011379
0
LINE
8
Layer 1
10
215.436139
20
31.011379
11
214.849492
21
32.084938
0
LINE
8
Layer 1
10
214.849492
20
32.084938
11
214.074072
21
33.022634
0
LINE
8
Layer 1
10
214.074072
20
33.022634
11
213.136349
21
33.798009
0
LINE
8
Layer 1
10
213.136349
20
33.798009
11
212.062797
21
34.384605
0
LINE
8
Layer 1
10
212.062797
20
34.384605
11
210.879886
21
34.755965
0
LINE
8
Layer 1
10
210.879886
20
34.755965
11
209.614089
21
34.885632
0
LINE
8
Layer 1
10
209.614089
20
34.885632
11
209.614089
21
34.885632
0
LINE
8
Layer 1
10
209.614089
20
74.891484
11
208.348202
21
74.761782
0
LINE
8
Layer 1
10
208.348202
20
74.761782
11
207.165201
21
74.390331
0
LINE
8
Layer 1
10
207.165201
20
74.390331
11
206.091561
21
73.803611
0
LINE
8
Layer 1
10
206.091561
20
73.803611
11
205.153760
21
73.028104
0
LINE
8
Layer 1
10
205.153760
20
73.028104
11
204.378271
21
72.090292
0
LINE
8
Layer 1
10
204.378271
20
72.090292
11
203.791572
21
71.016655
0
LINE
8
Layer 1
10
203.791572
20
71.016655
11
203.420137
21
69.833676
0
LINE
8
Layer 1
10
203.420137
20
69.833676
11
203.290441
21
68.567835
0
LINE
8
Layer 1
10
203.290441
20
68.567835
11
203.420138
21
67.301969
0
LINE
8
Layer 1
10
203.420138
20
67.301969
11
203.791576
21
66.118929
0
LINE
8
Layer 1
10
203.791576
20
66.118929
11
204.378279
21
65.045210
0
LINE
8
Layer 1
10
204.378279
20
65.045210
11
205.153770
21
64.107303
0
LINE
8
Layer 1
10
205.153770
20
64.107303
11
206.091574
21
63.331703
0
LINE
8
Layer 1
10
206.091574
20
63.331703
11
207.165212
21
62.744902
0
LINE
8
Layer 1
10
207.165212
20
62.744902
11
208.348210
21
62.373393
0
LINE
8
Layer 1
10
208.348210
20
62.373393
11
209.614089
21
62.243670
0
LINE
8
Layer 1
10
209.614089
20
62.243670
11
210.879910
21
62.373382
0
LINE
8
Layer 1
10
210.879910
20
62.373382
11
212.062832
21
62.744862
0
LINE
8
Layer 1
10
212.062832
20
62.744862
11
213.136386
21
63.331629
0
LINE
8
Layer 1
10
213.136386
20
63.331629
11
214.074103
21
64.107198
0
LINE
8
Layer 1
10
214.074103
20
64.107198
11
214.849514
21
65.045086
0
LINE
8
Layer 1
10
214.849514
20
65.045086
11
215.436151
21
66.118811
0
LINE
8
Layer 1
10
215.436151
20
66.118811
11
215.807543
21
67.301888
0
LINE
8
Layer 1
10
215.807543
20
67.301888
11
215.937222
21
68.567835
0
LINE
8
Layer 1
10
215.937222
20
68.567835
11
215.807544
21
69.833757
0
LINE
8
Layer 1
10
215.807544
20
69.833757
11
215.436155
21
71.016774
0
LINE
8
Layer 1
10
215.436155
20
71.016774
11
214.849522
21
72.090415
0
LINE
8
Layer 1
10
214.849522
20
72.090415
11
214.074114
21
73.028209
0
LINE
8
Layer 1
10
214.074114
20
73.028209
11
213.136399
21
73.803685
0
LINE
8
Layer 1
10
213.136399
20
73.803685
11
212.062844
21
74.390370
0
LINE
8
Layer 1
10
212.062844
20
74.390370
11
210.879919
21
74.761794
0
LINE
8
Layer 1
10
210.879919
20
74.761794
11
209.614089
21
74.891484
0
LINE
8
Layer 1
10
209.614089
20
74.891484
11
209.614089
21
74.891484
0
LINE
8
Layer 1
10
55.944300
20
57.111163
11
54.980232
21
57.041431
0
LINE
8
Layer 1
10
54.980232
20
57.041431
11
54.044965
21
56.816762
0
LINE
8
Layer 1
10
54.044965
20
56.816762
11
52.330046
21
55.955084
0
LINE
8
Layer 1
10
52.330046
20
55.955084
11
50.937977
21
54.631069
0
LINE
8
Layer 1
10
50.937977
20
54.631069
11
50.406271
21
53.828479
0
LINE
8
Layer 1
10
50.406271
20
53.828479
11
50.007190
21
52.949657
0
LINE
8
Layer 1
10
50.007190
20
52.949657
11
49.632727
21
51.221173
0
LINE
8
Layer 1
10
49.632727
20
51.221173
11
49.767543
21
49.460877
0
LINE
8
Layer 1
10
49.767543
20
49.460877
11
50.377976
21
47.802950
0
LINE
8
Layer 1
10
50.377976
20
47.802950
11
51.430360
21
46.381576
0
LINE
8
Layer 1
10
51.430360
20
46.381576
11
52.825991
21
45.296198
0
LINE
8
Layer 1
10
52.825991
20
45.296198
11
54.468135
21
44.645885
0
LINE
8
Layer 1
10
54.468135
20
44.645885
11
56.223980
21
44.467835
0
LINE
8
Layer 1
10
56.223980
20
44.467835
11
57.960715
21
44.799244
0
LINE
8
Layer 1
10
57.960715
20
44.799244
11
58.857305
21
45.180836
0
LINE
8
Layer 1
10
58.857305
20
45.180836
11
59.679016
21
45.699539
0
LINE
8
Layer 1
10
59.679016
20
45.699539
11
61.042809
21
47.077943
0
LINE
8
Layer 1
10
61.042809
20
47.077943
11
61.942105
21
48.793782
0
LINE
8
Layer 1
10
61.942105
20
48.793782
11
62.183196
21
49.734278
0
LINE
8
Layer 1
10
62.183196
20
49.734278
11
62.266917
21
50.706381
0
LINE
8
Layer 1
10
62.266917
20
50.706381
11
62.209803
21
51.671760
0
LINE
8
Layer 1
10
62.209803
20
51.671760
11
61.997111
21
52.610209
0
LINE
8
Layer 1
10
61.997111
20
52.610209
11
61.156776
21
54.336410
0
LINE
8
Layer 1
10
61.156776
20
54.336410
11
59.849481
21
55.745181
0
LINE
8
Layer 1
10
59.849481
20
55.745181
11
59.053088
21
56.286841
0
LINE
8
Layer 1
10
59.053088
20
56.286841
11
58.178792
21
56.696718
0
LINE
8
Layer 1
10
58.178792
20
56.696718
11
57.080608
21
57.006759
0
LINE
8
Layer 1
10
57.080608
20
57.006759
11
55.944300
21
57.111163
0
LINE
8
Layer 1
10
55.944300
20
57.111163
11
55.944300
21
57.111163
0
LINE
8
Layer 1
10
209.614089
20
61.556372
11
208.348202
21
61.426648
0
LINE
8
Layer 1
10
208.348202
20
61.426648
11
207.165201
21
61.055138
0
LINE
8
Layer 1
10
207.165201
20
61.055138
11
206.091561
21
60.468335
0
LINE
8
Layer 1
10
206.091561
20
60.468335
11
205.153760
21
59.692734
0
LINE
8
Layer 1
10
205.153760
20
59.692734
11
204.378271
21
58.754826
0
LINE
8
Layer 1
10
204.378271
20
58.754826
11
203.791572
21
57.681107
0
LINE
8
Layer 1
10
203.791572
20
57.681107
11
203.420137
21
56.498069
0
LINE
8
Layer 1
10
203.420137
20
56.498069
11
203.290441
21
55.232206
0
LINE
8
Layer 1
10
203.290441
20
55.232206
11
203.420138
21
53.966384
0
LINE
8
Layer 1
10
203.420138
20
53.966384
11
203.791576
21
52.783462
0
LINE
8
Layer 1
10
203.791576
20
52.783462
11
204.378279
21
51.709908
0
LINE
8
Layer 1
10
204.378279
20
51.709908
11
205.153770
21
50.772192
0
LINE
8
Layer 1
10
205.153770
20
50.772192
11
206.091574
21
49.996782
0
LINE
8
Layer 1
10
206.091574
20
49.996782
11
207.165212
21
49.410146
0
LINE
8
Layer 1
10
207.165212
20
49.410146
11
208.348210
21
49.038755
0
LINE
8
Layer 1
10
208.348210
20
49.038755
11
209.614089
21
48.909076
0
LINE
8
Layer 1
10
209.614089
20
48.909076
11
210.879910
21
49.038743
0
LINE
8
Layer 1
10
210.879910
20
49.038743
11
212.062832
21
49.410107
0
LINE
8
Layer 1
10
212.062832
20
49.410107
11
213.136386
21
49.996708
0
LINE
8
Layer 1
10
213.136386
20
49.996708
11
214.074103
21
50.772087
0
LINE
8
Layer 1
10
214.074103
20
50.772087
11
214.849514
21
51.709785
0
LINE
8
Layer 1
10
214.849514
20
51.709785
11
215.436151
21
52.783344
0
LINE
8
Layer 1
10
215.436151
20
52.783344
11
215.807543
21
53.966304
0
LINE
8
Layer 1
10
215.807543
20
53.966304
11
215.937222
21
55.232206
0
LINE
8
Layer 1
10
215.937222
20
55.232206
11
215.807544
21
56.498150
0
LINE
8
Layer 1
10
215.807544
20
56.498150
11
215.436155
21
57.681226
0
LINE
8
Layer 1
10
215.436155
20
57.681226
11
214.849522
21
58.754950
0
LINE
8
Layer 1
10
214.849522
20
58.754950
11
214.074114
21
59.692839
0
LINE
8
Layer 1
10
214.074114
20
59.692839
11
213.136399
21
60.468409
0
LINE
8
Layer 1
10
213.136399
20
60.468409
11
212.062844
21
61.055177
0
LINE
8
Layer 1
10
212.062844
20
61.055177
11
210.879919
21
61.426660
0
LINE
8
Layer 1
10
210.879919
20
61.426660
11
209.614089
21
61.556372
0
LINE
8
Layer 1
10
209.614089
20
61.556372
11
209.614089
21
61.556372
0
LINE
8
Layer 1
10
209.614089
20
48.220742
11
208.348234
21
48.091042
0
LINE
8
Layer 1
10
208.348234
20
48.091042
11
207.165248
21
47.719596
0
LINE
8
Layer 1
10
207.165248
20
47.719596
11
206.091611
21
47.132883
0
LINE
8
Layer 1
10
206.091611
20
47.132883
11
205.153802
21
46.357382
0
LINE
8
Layer 1
10
205.153802
20
46.357382
11
204.378301
21
45.419573
0
LINE
8
Layer 1
10
204.378301
20
45.419573
11
203.791588
21
44.345936
0
LINE
8
Layer 1
10
203.791588
20
44.345936
11
203.420141
21
43.162950
0
LINE
8
Layer 1
10
203.420141
20
43.162950
11
203.290441
21
41.897094
0
LINE
8
Layer 1
10
203.290441
20
41.897094
11
203.420130
21
40.631298
0
LINE
8
Layer 1
10
203.420130
20
40.631298
11
203.791548
21
39.448387
0
LINE
8
Layer 1
10
203.791548
20
39.448387
11
204.378227
21
38.374835
0
LINE
8
Layer 1
10
204.378227
20
38.374835
11
205.153696
21
37.437112
0
LINE
8
Layer 1
10
205.153696
20
37.437112
11
206.091487
21
36.661692
0
LINE
8
Layer 1
10
206.091487
20
36.661692
11
207.165129
21
36.075045
0
LINE
8
Layer 1
10
207.165129
20
36.075045
11
208.348153
21
35.703644
0
LINE
8
Layer 1
10
208.348153
20
35.703644
11
209.614089
21
35.573961
0
LINE
8
Layer 1
10
209.614089
20
35.573961
11
210.879967
21
35.703633
0
LINE
8
Layer 1
10
210.879967
20
35.703633
11
212.062916
21
36.075005
0
LINE
8
Layer 1
10
212.062916
20
36.075005
11
213.136473
21
36.661617
0
LINE
8
Layer 1
10
213.136473
20
36.661617
11
214.074177
21
37.437006
0
LINE
8
Layer 1
10
214.074177
20
37.437006
11
214.849567
21
38.374711
0
LINE
8
Layer 1
10
214.849567
20
38.374711
11
215.436178
21
39.448268
0
LINE
8
Layer 1
10
215.436178
20
39.448268
11
215.807551
21
40.631217
0
LINE
8
Layer 1
10
215.807551
20
40.631217
11
215.937222
21
41.897094
0
LINE
8
Layer 1
10
215.937222
20
41.897094
11
215.807539
21
43.163031
0
LINE
8
Layer 1
10
215.807539
20
43.163031
11
215.436139
21
44.346055
0
LINE
8
Layer 1
10
215.436139
20
44.346055
11
214.849492
21
45.419697
0
LINE
8
Layer 1
10
214.849492
20
45.419697
11
214.074072
21
46.357487
0
LINE
8
Layer 1
10
214.074072
20
46.357487
11
213.136349
21
47.132957
0
LINE
8
Layer 1
10
213.136349
20
47.132957
11
212.062797
21
47.719636
0
LINE
8
Layer 1
10
212.062797
20
47.719636
11
210.879886
21
48.091054
0
LINE
8
Layer 1
10
210.879886
20
48.091054
11
209.614089
21
48.220742
0
LINE
8
Layer 1
10
209.614089
20
48.220742
11
209.614089
21
48.220742
0
LINE
8
Layer 1
10
0.248958
20
87.167708
11
219.711040
21
87.167708
0
LINE
8
Layer 1
10
219.711040
20
87.167708
11
220.521054
21
87.006588
0
LINE
8
Layer 1
10
220.521054
20
87.006588
11
221.207751
21
86.547752
0
LINE
8
Layer 1
10
221.207751
20
86.547752
11
221.666588
21
85.861056
0
LINE
8
Layer 1
10
221.666588
20
85.861056
11
221.827710
21
85.051042
0
LINE
8
Layer 1
10
221.827710
20
85.051042
11
221.827710
21
3.988957
0
LINE
8
Layer 1
10
221.827710
20
3.988957
11
221.666588
21
3.178943
0
LINE
8
Layer 1
10
221.666588
20
3.178943
11
221.207751
21
2.492247
0
LINE
8
Layer 1
10
221.207751
20
2.492247
11
220.521054
21
2.033412
0
LINE
8
Layer 1
10
220.521054
20
2.033412
11
219.711040
21
1.872291
0
LINE
8
Layer 1
10
219.711040
20
1.872291
11
0.248958
21
1.872291
0
LINE
8
Layer 1
10
0.248958
20
1.872291
11
-0.574944
21
2.038629
0
LINE
8
Layer 1
10
-0.574944
20
2.038629
11
-1.247751
21
2.492248
0
LINE
8
Layer 1
10
-1.247751
20
2.492248
11
-1.701370
21
3.165055
0
LINE
8
Layer 1
10
-1.701370
20
3.165055
11
-1.867708
21
3.988957
0
LINE
8
Layer 1
10
-1.867708
20
3.988957
11
-1.867708
21
85.051042
0
LINE
8
Layer 1
10
-1.867708
20
85.051042
11
-1.701370
21
85.874944
0
LINE
8
Layer 1
10
-1.701370
20
85.874944
11
-1.247751
21
86.547751
0
LINE
8
Layer 1
10
-1.247751
20
86.547751
11
-0.574944
21
87.001370
0
LINE
8
Layer 1
10
-0.574944
20
87.001370
11
0.248958
21
87.167708
0
LINE
8
Layer 1
10
0.248958
20
87.167708
11
0.248958
21
87.167708
0
LINE
8
Layer 1
10
0.248047
20
87.300000
11
-0.626545
21
87.123188
0
LINE
8
Layer 1
10
-0.626545
20
87.123188
11
-1.341163
21
86.641163
0
LINE
8
Layer 1
10
-1.341163
20
86.641163
11
-1.823188
21
85.926545
0
LINE
8
Layer 1
10
-1.823188
20
85.926545
11
-2.000000
21
85.051953
0
LINE
8
Layer 1
10
-2.000000
20
85.051953
11
-2.000000
21
3.989453
0
LINE
8
Layer 1
10
-2.000000
20
3.989453
11
-1.823187
21
3.114556
0
LINE
8
Layer 1
10
-1.823187
20
3.114556
11
-1.341163
21
2.399267
0
LINE
8
Layer 1
10
-1.341163
20
2.399267
11
-0.626545
21
1.916571
0
LINE
8
Layer 1
10
-0.626545
20
1.916571
11
0.248047
21
1.739453
0
LINE
8
Layer 1
10
0.248047
20
1.739453
11
219.710940
21
1.739453
0
LINE
8
Layer 1
10
219.710940
20
1.739453
11
220.585838
21
1.916570
0
LINE
8
Layer 1
10
220.585838
20
1.916570
11
221.301128
21
2.399265
0
LINE
8
Layer 1
10
221.301128
20
2.399265
11
221.783823
21
3.114555
0
LINE
8
Layer 1
10
221.783823
20
3.114555
11
221.960940
21
3.989453
0
LINE
8
Layer 1
10
221.960940
20
3.989453
11
221.960940
21
85.051953
0
LINE
8
Layer 1
10
221.960940
20
85.051953
11
221.783823
21
85.926546
0
LINE
8
Layer 1
10
221.783823
20
85.926546
11
221.301128
21
86.641164
0
LINE
8
Layer 1
10
221.301128
20
86.641164
11
220.585838
21
87.123189
0
LINE
8
Layer 1
10
220.585838
20
87.123189
11
219.710940
21
87.300000
0
LINE
8
Layer 1
10
219.710940
20
87.300000
11
0.248047
21
87.300000
0
LINE
8
Layer 1
10
0.248047
20
87.036328
11
219.710940
21
87.036328
0
LINE
8
Layer 1
10
219.710940
20
87.036328
11
220.484006
21
86.880607
0
LINE
8
Layer 1
10
220.484006
20
86.880607
11
221.114688
21
86.455706
0
LINE
8
Layer 1
10
221.114688
20
86.455706
11
221.539588
21
85.825023
0
LINE
8
Layer 1
10
221.539588
20
85.825023
11
221.695310
21
85.051953
0
LINE
8
Layer 1
10
221.695310
20
85.051953
11
221.695310
21
3.989453
0
LINE
8
Layer 1
10
221.695310
20
3.989453
11
221.539588
21
3.216383
0
LINE
8
Layer 1
10
221.539588
20
3.216383
11
221.114688
21
2.585700
0
LINE
8
Layer 1
10
221.114688
20
2.585700
11
220.484006
21
2.160799
0
LINE
8
Layer 1
10
220.484006
20
2.160799
11
219.710940
21
2.005078
0
LINE
8
Layer 1
10
219.710940
20
2.005078
11
0.248047
21
2.005078
0
LINE
8
Layer 1
10
0.248047
20
2.005078
11
-0.525022
21
2.160800
0
LINE
8
Layer 1
10
-0.525022
20
2.160800
11
-1.155705
21
2.585701
0
LINE
8
Layer 1
10
-1.155705
20
2.585701
11
-1.580606
21
3.216384
0
LINE
8
Layer 1
10
-1.580606
20
3.216384
11
-1.736328
21
3.989453
0
LINE
8
Layer 1
10
-1.736328
20
3.989453
11
-1.736328
21
85.051953
0
LINE
8
Layer 1
10
-1.736328
20
85.051953
11
-1.580606
21
85.825022
0
LINE
8
Layer 1
10
-1.580606
20
85.825022
11
-1.155705
21
86.455705
0
LINE
8
Layer 1
10
-1.155705
20
86.455705
11
-0.525022
21
86.880606
0
LINE
8
Layer 1
10
-0.525022
20
86.880606
11
0.248047
21
87.036328
0
LINE
8
Layer 1
10
0.248047
20
87.036328
11
0.248047
21
87.036328
0
LINE
8
Layer 1
10
99.324312
20
8.344220
11
99.206212
21
8.927839
0
LINE
8
Layer 1
10
99.206212
20
8.927839
11
98.884698
21
9.404380
0
LINE
8
Layer 1
10
98.884698
20
9.404380
11
98.407992
21
9.725647
0
LINE
8
Layer 1
10
98.407992
20
9.725647
11
97.824312
21
9.843446
0
LINE
8
Layer 1
10
97.824312
20
9.843446
11
97.240632
21
9.725647
0
LINE
8
Layer 1
10
97.240632
20
9.725647
11
96.763926
21
9.404380
0
LINE
8
Layer 1
10
96.763926
20
9.404380
11
96.442412
21
8.927839
0
LINE
8
Layer 1
10
96.442412
20
8.927839
11
96.324312
21
8.344220
0
LINE
8
Layer 1
10
96.324312
20
8.344220
11
96.442412
21
7.760601
0
LINE
8
Layer 1
10
96.442412
20
7.760601
11
96.763926
21
7.284060
0
LINE
8
Layer 1
10
96.763926
20
7.284060
11
97.240632
21
6.962793
0
LINE
8
Layer 1
10
97.240632
20
6.962793
11
97.824312
21
6.844994
0
LINE
8
Layer 1
10
97.824312
20
6.844994
11
98.407992
21
6.962793
0
LINE
8
Layer 1
10
98.407992
20
6.962793
11
98.884698
21
7.284060
0
LINE
8
Layer 1
10
98.884698
20
7.284060
11
99.206212
21
7.760601
0
LINE
8
Layer 1
10
99.206212
20
7.760601
11
99.324312
21
8.344220
0
LINE
8
Layer 1
10
99.324312
20
8.344220
11
99.324312
21
8.344220
0
LINE
8
Layer 1
10
123.536645
20
80.778713
11
123.418705
21
81.362511
0
LINE
8
Layer 1
10
123.418705
20
81.362511
11
123.097228
21
81.839232
0
LINE
8
Layer 1
10
123.097228
20
81.839232
11
122.620460
21
82.160640
0
LINE
8
Layer 1
10
122.620460
20
82.160640
11
122.036645
21
82.278495
0
LINE
8
Layer 1
10
122.036645
20
82.278495
11
121.452830
21
82.160640
0
LINE
8
Layer 1
10
121.452830
20
82.160640
11
120.976062
21
81.839232
0
LINE
8
Layer 1
10
120.976062
20
81.839232
11
120.654585
21
81.362511
0
LINE
8
Layer 1
10
120.654585
20
81.362511
11
120.536645
21
80.778713
0
LINE
8
Layer 1
10
120.536645
20
80.778713
11
120.654585
21
80.194915
0
LINE
8
Layer 1
10
120.654585
20
80.194915
11
120.976062
21
79.718194
0
LINE
8
Layer 1
10
120.976062
20
79.718194
11
121.452830
21
79.396787
0
LINE
8
Layer 1
10
121.452830
20
79.396787
11
122.036645
21
79.278931
0
LINE
8
Layer 1
10
122.036645
20
79.278931
11
122.620460
21
79.396787
0
LINE
8
Layer 1
10
122.620460
20
79.396787
11
123.097228
21
79.718194
0
LINE
8
Layer 1
10
123.097228
20
79.718194
11
123.418705
21
80.194915
0
LINE
8
Layer 1
10
123.418705
20
80.194915
11
123.536645
21
80.778713
0
LINE
8
Layer 1
10
123.536645
20
80.778713
11
123.536645
21
80.778713
0
LINE
8
Layer 1
10
99.360482
20
80.778555
11
99.242381
21
81.362174
0
LINE
8
Layer 1
10
99.242381
20
81.362174
11
98.920868
21
81.838715
0
LINE
8
Layer 1
10
98.920868
20
81.838715
11
98.444162
21
82.159982
0
LINE
8
Layer 1
10
98.444162
20
82.159982
11
97.860482
21
82.277781
0
LINE
8
Layer 1
10
97.860482
20
82.277781
11
97.276802
21
82.159982
0
LINE
8
Layer 1
10
97.276802
20
82.159982
11
96.800095
21
81.838715
0
LINE
8
Layer 1
10
96.800095
20
81.838715
11
96.478582
21
81.362174
0
LINE
8
Layer 1
10
96.478582
20
81.362174
11
96.360482
21
80.778555
0
LINE
8
Layer 1
10
96.360482
20
80.778555
11
96.478582
21
80.194936
0
LINE
8
Layer 1
10
96.478582
20
80.194936
11
96.800095
21
79.718395
0
LINE
8
Layer 1
10
96.800095
20
79.718395
11
97.276802
21
79.397128
0
LINE
8
Layer 1
10
97.276802
20
79.397128
11
97.860482
21
79.279329
0
LINE
8
Layer 1
10
97.860482
20
79.279329
11
98.444162
21
79.397128
0
LINE
8
Layer 1
10
98.444162
20
79.397128
11
98.920868
21
79.718395
0
LINE
8
Layer 1
10
98.920868
20
79.718395
11
99.242381
21
80.194936
0
LINE
8
Layer 1
10
99.242381
20
80.194936
11
99.360482
21
80.778555
0
LINE
8
Layer 1
10
99.360482
20
80.778555
11
99.360482
21
80.778555
0
LINE
8
Layer 1
10
123.499645
20
8.343832
11
123.381705
21
8.927629
0
LINE
8
Layer 1
10
123.381705
20
8.927629
11
123.060229
21
9.404349
0
LINE
8
Layer 1
10
123.060229
20
9.404349
11
122.583461
21
9.725756
0
LINE
8
Layer 1
10
122.583461
20
9.725756
11
121.999647
21
9.843612
0
LINE
8
Layer 1
10
121.999647
20
9.843612
11
121.415833
21
9.725756
0
LINE
8
Layer 1
10
121.415833
20
9.725756
11
120.939065
21
9.404349
0
LINE
8
Layer 1
10
120.939065
20
9.404349
11
120.617589
21
8.927629
0
LINE
8
Layer 1
10
120.617589
20
8.927629
11
120.499649
21
8.343832
0
LINE
8
Layer 1
10
120.499649
20
8.343832
11
120.617589
21
7.760035
0
LINE
8
Layer 1
10
120.617589
20
7.760035
11
120.939065
21
7.283314
0
LINE
8
Layer 1
10
120.939065
20
7.283314
11
121.415833
21
6.961907
0
LINE
8
Layer 1
10
121.415833
20
6.961907
11
121.999647
21
6.844051
0
LINE
8
Layer 1
10
121.999647
20
6.844051
11
122.583461
21
6.961907
0
LINE
8
Layer 1
10
122.583461
20
6.961907
11
123.060229
21
7.283314
0
LINE
8
Layer 1
10
123.060229
20
7.283314
11
123.381705
21
7.760035
0
LINE
8
Layer 1
10
123.381705
20
7.760035
11
123.499645
21
8.343832
0
LINE
8
Layer 1
10
123.499645
20
8.343832
11
123.499645
21
8.343832
0
LINE
8
Layer 1
10
125.805902
20
46.668888
11
125.201792
21
46.545879
0
LINE
8
Layer 1
10
125.201792
20
46.545879
11
124.706102
21
46.211159
0
LINE
8
Layer 1
10
124.706102
20
46.211159
11
124.370672
21
45.716179
0
LINE
8
Layer 1
10
124.370672
20
45.716179
11
124.247342
21
45.112394
0
LINE
8
Layer 1
10
124.247342
20
45.112394
11
124.247342
21
38.227543
0
LINE
8
Layer 1
10
124.247342
20
38.227543
11
124.370672
21
37.623435
0
LINE
8
Layer 1
10
124.370672
20
37.623435
11
124.706102
21
37.127745
0
LINE
8
Layer 1
10
124.706102
20
37.127745
11
125.201792
21
36.792314
0
LINE
8
Layer 1
10
125.201792
20
36.792314
11
125.805902
21
36.668982
0
LINE
8
Layer 1
10
125.805902
20
36.668982
11
142.690662
21
36.668982
0
LINE
8
Layer 1
10
142.690662
20
36.668982
11
143.294444
21
36.792314
0
LINE
8
Layer 1
10
143.294444
20
36.792314
11
143.789423
21
37.127745
0
LINE
8
Layer 1
10
143.789423
20
37.127745
11
144.124144
21
37.623435
0
LINE
8
Layer 1
10
144.124144
20
37.623435
11
144.247152
21
38.227543
0
LINE
8
Layer 1
10
144.247152
20
38.227543
11
144.247152
21
45.112394
0
LINE
8
Layer 1
10
144.247152
20
45.112394
11
144.124144
21
45.716179
0
LINE
8
Layer 1
10
144.124144
20
45.716179
11
143.789423
21
46.211159
0
LINE
8
Layer 1
10
143.789423
20
46.211159
11
143.294444
21
46.545879
0
LINE
8
Layer 1
10
143.294444
20
46.545879
11
142.690662
21
46.668888
0
LINE
8
Layer 1
10
142.690662
20
46.668888
11
125.805902
21
46.668888
0
LINE
8
rechtsboven
10
216.930998
20
80.768111
11
216.813121
21
81.351978
0
LINE
8
rechtsboven
10
216.813121
20
81.351978
11
216.491659
21
81.828769
0
LINE
8
rechtsboven
10
216.491659
20
81.828769
11
216.014867
21
82.150231
0
LINE
8
rechtsboven
10
216.014867
20
82.150231
11
215.431000
21
82.268109
0
LINE
8
rechtsboven
10
215.431000
20
82.268109
11
214.847133
21
82.150231
0
LINE
8
rechtsboven
10
214.847133
20
82.150231
11
214.370341
21
81.828769
0
LINE
8
rechtsboven
10
214.370341
20
81.828769
11
214.048879
21
81.351978
0
LINE
8
rechtsboven
10
214.048879
20
81.351978
11
213.931002
21
80.768111
0
LINE
8
rechtsboven
10
213.931002
20
80.768111
11
214.131963
21
80.018112
0
LINE
8
rechtsboven
10
214.131963
20
80.018112
11
214.681001
21
79.469074
0
LINE
8
rechtsboven
10
214.681001
20
79.469074
11
215.431000
21
79.268112
0
LINE
8
rechtsboven
10
215.431000
20
79.268112
11
216.180999
21
79.469074
0
LINE
8
rechtsboven
10
216.180999
20
79.469074
11
216.730037
21
80.018112
0
LINE
8
rechtsboven
10
216.730037
20
80.018112
11
216.930998
21
80.768111
0
LINE
8
rechtsboven
10
216.930998
20
80.768111
11
216.930998
21
80.768111
0
LINE
8
linksboven
10
6.031828
20
80.768111
11
5.830867
21
81.518110
0
LINE
8
linksboven
10
5.830867
20
81.518110
11
5.281829
21
82.067147
0
LINE
8
linksboven
10
5.281829
20
82.067147
11
4.531830
21
82.268109
0
LINE
8
linksboven
10
4.531830
20
82.268109
11
3.781831
21
82.067147
0
LINE
8
linksboven
10
3.781831
20
82.067147
11
3.232793
21
81.518110
0
LINE
8
linksboven
10
3.232793
20
81.518110
11
3.031832
21
80.768111
0
LINE
8
linksboven
10
3.031832
20
80.768111
11
3.232793
21
80.018112
0
LINE
8
linksboven
10
3.232793
20
80.018112
11
3.781831
21
79.469074
0
LINE
8
linksboven
10
3.781831
20
79.469074
11
4.531830
21
79.268112
0
LINE
8
linksboven
10
4.531830
20
79.268112
11
5.281829
21
79.469074
0
LINE
8
linksboven
10
5.281829
20
79.469074
11
5.830867
21
80.018112
0
LINE
8
linksboven
10
5.830867
20
80.018112
11
6.031828
21
80.768111
0
LINE
8
linksboven
10
6.031828
20
80.768111
11
6.031828
21
80.768111
0
LINE
8
rechtsonder
10
216.930998
20
8.367111
11
216.813121
21
8.950978
0
LINE
8
rechtsonder
10
216.813121
20
8.950978
11
216.491659
21
9.427769
0
LINE
8
rechtsonder
10
216.491659
20
9.427769
11
216.014867
21
9.749231
0
LINE
8
rechtsonder
10
216.014867
20
9.749231
11
215.431000
21
9.867109
0
LINE
8
rechtsonder
10
215.431000
20
9.867109
11
214.847133
21
9.749231
0
LINE
8
rechtsonder
10
214.847133
20
9.749231
11
214.370341
21
9.427769
0
LINE
8
rechtsonder
10
214.370341
20
9.427769
11
214.048879
21
8.950978
0
LINE
8
rechtsonder
10
214.048879
20
8.950978
11
213.931002
21
8.367111
0
LINE
8
rechtsonder
10
213.931002
20
8.367111
11
214.131963
21
7.617112
0
LINE
8
rechtsonder
10
214.131963
20
7.617112
11
214.681001
21
7.068074
0
LINE
8
rechtsonder
10
214.681001
20
7.068074
11
215.431000
21
6.867112
0
LINE
8
rechtsonder
10
215.431000
20
6.867112
11
216.180999
21
7.068074
0
LINE
8
rechtsonder
10
216.180999
20
7.068074
11
216.730037
21
7.617112
0
LINE
8
rechtsonder
10
216.730037
20
7.617112
11
216.930998
21
8.367111
0
LINE
8
rechtsonder
10
216.930998
20
8.367111
11
216.930998
21
8.367111
0
LINE
8
linksonder
10
6.031828
20
8.367111
11
5.830867
21
9.117110
0
LINE
8
linksonder
10
5.830867
20
9.117110
11
5.281829
21
9.666147
0
LINE
8
linksonder
10
5.281829
20
9.666147
11
4.531830
21
9.867109
0
LINE
8
linksonder
10
4.531830
20
9.867109
11
3.781831
21
9.666147
0
LINE
8
linksonder
10
3.781831
20
9.666147
11
3.232793
21
9.117110
0
LINE
8
linksonder
10
3.232793
20
9.117110
11
3.031832
21
8.367111
0
LINE
8
linksonder
10
3.031832
20
8.367111
11
3.232793
21
7.617112
0
LINE
8
linksonder
10
3.232793
20
7.617112
11
3.781831
21
7.068074
0
LINE
8
linksonder
10
3.781831
20
7.068074
11
4.531830
21
6.867112
0
LINE
8
linksonder
10
4.531830
20
6.867112
11
5.281829
21
7.068074
0
LINE
8
linksonder
10
5.281829
20
7.068074
11
5.830867
21
7.617112
0
LINE
8
linksonder
10
5.830867
20
7.617112
11
6.031828
21
8.367111
0
LINE
8
linksonder
10
6.031828
20
8.367111
11
6.031828
21
8.367111
 0 
ENDSEC
 0 
EOF