999
"DXF R12 Output" (www.mydxf.blogspot.com)
 0 
SECTION
 2 
HEADER
 9 
$ACADVER
 1 
AC1009
 9 
$EXTMIN
 10 
 0 
 20 
 0 
 9 
$EXTMAX
 10 
 8.5 
 20 
 11 
 0 
ENDSEC
 0 
SECTION
 2 
ENTITIES
0
LINE
8
Layer 1
10
0.248958
20
87.167700
11
219.711000
21
87.167700
0
LINE
8
Layer 1
10
219.711000
20
87.167700
11
220.521015
21
87.006578
0
LINE
8
Layer 1
10
220.521015
20
87.006578
11
221.207712
21
86.547742
0
LINE
8
Layer 1
10
221.207712
20
86.547742
11
221.666548
21
85.861045
0
LINE
8
Layer 1
10
221.666548
20
85.861045
11
221.827670
21
85.051030
0
LINE
8
Layer 1
10
221.827670
20
85.051030
11
221.828000
21
3.988960
0
LINE
8
Layer 1
10
221.828000
20
3.988960
11
221.666878
21
3.178945
0
LINE
8
Layer 1
10
221.666878
20
3.178945
11
221.208042
21
2.492248
0
LINE
8
Layer 1
10
221.208042
20
2.492248
11
220.521345
21
2.033412
0
LINE
8
Layer 1
10
220.521345
20
2.033412
11
219.711330
21
1.872290
0
LINE
8
Layer 1
10
219.711330
20
1.872290
11
0.248958
21
1.872290
0
LINE
8
Layer 1
10
0.248958
20
1.872290
11
-0.574945
21
2.038629
0
LINE
8
Layer 1
10
-0.574945
20
2.038629
11
-1.247752
21
2.492249
0
LINE
8
Layer 1
10
-1.247752
20
2.492249
11
-1.701372
21
3.165057
0
LINE
8
Layer 1
10
-1.701372
20
3.165057
11
-1.867710
21
3.988960
0
LINE
8
Layer 1
10
-1.867710
20
3.988960
11
-1.867710
21
85.051000
0
LINE
8
Layer 1
10
-1.867710
20
85.051000
11
-1.706597
21
85.861023
0
LINE
8
Layer 1
10
-1.706597
20
85.861023
11
-1.247763
21
86.547730
0
LINE
8
Layer 1
10
-1.247763
20
86.547730
11
-0.561063
21
87.006575
0
LINE
8
Layer 1
10
-0.561063
20
87.006575
11
0.248958
21
87.167700
0
LINE
8
Layer 1
10
0.248958
20
87.167700
11
0.248958
21
87.167700
0
LINE
8
Layer 1
10
0.248047
20
87.300000
11
-0.626545
21
87.123195
0
LINE
8
Layer 1
10
-0.626545
20
87.123195
11
-1.341163
21
86.641188
0
LINE
8
Layer 1
10
-1.341163
20
86.641188
11
-1.823188
21
85.926586
0
LINE
8
Layer 1
10
-1.823188
20
85.926586
11
-2.000000
21
85.052000
0
LINE
8
Layer 1
10
-2.000000
20
85.052000
11
-2.000000
21
3.989450
0
LINE
8
Layer 1
10
-2.000000
20
3.989450
11
-1.823187
21
3.114552
0
LINE
8
Layer 1
10
-1.823187
20
3.114552
11
-1.341162
21
2.399263
0
LINE
8
Layer 1
10
-1.341162
20
2.399263
11
-0.626544
21
1.916567
0
LINE
8
Layer 1
10
-0.626544
20
1.916567
11
0.248050
21
1.739450
0
LINE
8
Layer 1
10
0.248050
20
1.739450
11
219.711000
21
1.739450
0
LINE
8
Layer 1
10
219.711000
20
1.739450
11
220.585898
21
1.916566
0
LINE
8
Layer 1
10
220.585898
20
1.916566
11
221.301188
21
2.399262
0
LINE
8
Layer 1
10
221.301188
20
2.399262
11
221.783883
21
3.114551
0
LINE
8
Layer 1
10
221.783883
20
3.114551
11
221.961000
21
3.989450
0
LINE
8
Layer 1
10
221.961000
20
3.989450
11
221.961000
21
85.052000
0
LINE
8
Layer 1
10
221.961000
20
85.052000
11
221.783883
21
85.926594
0
LINE
8
Layer 1
10
221.783883
20
85.926594
11
221.301188
21
86.641213
0
LINE
8
Layer 1
10
221.301188
20
86.641213
11
220.585898
21
87.123238
0
LINE
8
Layer 1
10
220.585898
20
87.123238
11
219.711000
21
87.300050
0
LINE
8
Layer 1
10
219.711000
20
87.300050
11
0.248047
21
87.300000
0
LINE
8
Layer 1
10
0.248047
20
87.036328
11
219.711000
21
87.036300
0
LINE
8
Layer 1
10
219.711000
20
87.036300
11
220.484066
21
86.880579
0
LINE
8
Layer 1
10
220.484066
20
86.880579
11
221.114748
21
86.455679
0
LINE
8
Layer 1
10
221.114748
20
86.455679
11
221.539648
21
85.824997
0
LINE
8
Layer 1
10
221.539648
20
85.824997
11
221.695370
21
85.051930
0
LINE
8
Layer 1
10
221.695370
20
85.051930
11
221.695000
21
3.989450
0
LINE
8
Layer 1
10
221.695000
20
3.989450
11
221.539278
21
3.216379
0
LINE
8
Layer 1
10
221.539278
20
3.216379
11
221.114377
21
2.585694
0
LINE
8
Layer 1
10
221.114377
20
2.585694
11
220.483696
21
2.160792
0
LINE
8
Layer 1
10
220.483696
20
2.160792
11
219.710630
21
2.005070
0
LINE
8
Layer 1
10
219.710630
20
2.005070
11
0.248047
21
2.005080
0
LINE
8
Layer 1
10
0.248047
20
2.005080
11
-0.525023
21
2.160802
0
LINE
8
Layer 1
10
-0.525023
20
2.160802
11
-1.155704
21
2.585703
0
LINE
8
Layer 1
10
-1.155704
20
2.585703
11
-1.580603
21
3.216388
0
LINE
8
Layer 1
10
-1.580603
20
3.216388
11
-1.736323
21
3.989460
0
LINE
8
Layer 1
10
-1.736323
20
3.989460
11
-1.736330
21
85.052000
0
LINE
8
Layer 1
10
-1.736330
20
85.052000
11
-1.580608
21
85.825070
0
LINE
8
Layer 1
10
-1.580608
20
85.825070
11
-1.155708
21
86.455751
0
LINE
8
Layer 1
10
-1.155708
20
86.455751
11
-0.525026
21
86.880650
0
LINE
8
Layer 1
10
-0.525026
20
86.880650
11
0.248040
21
87.036370
0
LINE
8
Layer 1
10
0.248040
20
87.036370
11
0.248047
21
87.036328
0
LINE
8
rechtsboven
10
216.932000
20
80.768000
11
216.731038
21
81.518000
0
LINE
8
rechtsboven
10
216.731038
20
81.518000
11
216.182000
21
82.067038
0
LINE
8
rechtsboven
10
216.182000
20
82.067038
11
215.432000
21
82.268000
0
LINE
8
rechtsboven
10
215.432000
20
82.268000
11
214.682000
21
82.067038
0
LINE
8
rechtsboven
10
214.682000
20
82.067038
11
214.132962
21
81.518000
0
LINE
8
rechtsboven
10
214.132962
20
81.518000
11
213.932000
21
80.768000
0
LINE
8
rechtsboven
10
213.932000
20
80.768000
11
214.132962
21
80.018000
0
LINE
8
rechtsboven
10
214.132962
20
80.018000
11
214.682000
21
79.468962
0
LINE
8
rechtsboven
10
214.682000
20
79.468962
11
215.432000
21
79.268000
0
LINE
8
rechtsboven
10
215.432000
20
79.268000
11
216.182000
21
79.468962
0
LINE
8
rechtsboven
10
216.182000
20
79.468962
11
216.731038
21
80.018000
0
LINE
8
rechtsboven
10
216.731038
20
80.018000
11
216.932000
21
80.768000
0
LINE
8
rechtsboven
10
216.932000
20
80.768000
11
216.932000
21
80.768000
0
LINE
8
linksboven
10
6.031830
20
80.768100
11
5.913953
21
81.351968
0
LINE
8
linksboven
10
5.913953
20
81.351968
11
5.592490
21
81.828760
0
LINE
8
linksboven
10
5.592490
20
81.828760
11
5.115698
21
82.150223
0
LINE
8
linksboven
10
5.115698
20
82.150223
11
4.531830
21
82.268100
0
LINE
8
linksboven
10
4.531830
20
82.268100
11
3.947962
21
82.150223
0
LINE
8
linksboven
10
3.947962
20
82.150223
11
3.471170
21
81.828760
0
LINE
8
linksboven
10
3.471170
20
81.828760
11
3.149707
21
81.351968
0
LINE
8
linksboven
10
3.149707
20
81.351968
11
3.031830
21
80.768100
0
LINE
8
linksboven
10
3.031830
20
80.768100
11
3.232792
21
80.018100
0
LINE
8
linksboven
10
3.232792
20
80.018100
11
3.781830
21
79.469062
0
LINE
8
linksboven
10
3.781830
20
79.469062
11
4.531830
21
79.268100
0
LINE
8
linksboven
10
4.531830
20
79.268100
11
5.281830
21
79.469062
0
LINE
8
linksboven
10
5.281830
20
79.469062
11
5.830868
21
80.018100
0
LINE
8
linksboven
10
5.830868
20
80.018100
11
6.031830
21
80.768100
0
LINE
8
linksboven
10
6.031830
20
80.768100
11
6.031830
21
80.768100
0
LINE
8
rechtsonder
10
216.931000
20
8.367110
11
216.730038
21
9.117110
0
LINE
8
rechtsonder
10
216.730038
20
9.117110
11
216.181000
21
9.666148
0
LINE
8
rechtsonder
10
216.181000
20
9.666148
11
215.431000
21
9.867110
0
LINE
8
rechtsonder
10
215.431000
20
9.867110
11
214.681000
21
9.666148
0
LINE
8
rechtsonder
10
214.681000
20
9.666148
11
214.131962
21
9.117110
0
LINE
8
rechtsonder
10
214.131962
20
9.117110
11
213.931000
21
8.367110
0
LINE
8
rechtsonder
10
213.931000
20
8.367110
11
214.131962
21
7.617110
0
LINE
8
rechtsonder
10
214.131962
20
7.617110
11
214.681000
21
7.068072
0
LINE
8
rechtsonder
10
214.681000
20
7.068072
11
215.431000
21
6.867110
0
LINE
8
rechtsonder
10
215.431000
20
6.867110
11
216.181000
21
7.068072
0
LINE
8
rechtsonder
10
216.181000
20
7.068072
11
216.730038
21
7.617110
0
LINE
8
rechtsonder
10
216.730038
20
7.617110
11
216.931000
21
8.367110
0
LINE
8
rechtsonder
10
216.931000
20
8.367110
11
216.931000
21
8.367110
0
LINE
8
linksonder
10
6.031830
20
8.367110
11
5.913953
21
8.950978
0
LINE
8
linksonder
10
5.913953
20
8.950978
11
5.592490
21
9.427770
0
LINE
8
linksonder
10
5.592490
20
9.427770
11
5.115698
21
9.749233
0
LINE
8
linksonder
10
5.115698
20
9.749233
11
4.531830
21
9.867110
0
LINE
8
linksonder
10
4.531830
20
9.867110
11
3.947962
21
9.749233
0
LINE
8
linksonder
10
3.947962
20
9.749233
11
3.471170
21
9.427770
0
LINE
8
linksonder
10
3.471170
20
9.427770
11
3.149707
21
8.950978
0
LINE
8
linksonder
10
3.149707
20
8.950978
11
3.031830
21
8.367110
0
LINE
8
linksonder
10
3.031830
20
8.367110
11
3.232792
21
7.617110
0
LINE
8
linksonder
10
3.232792
20
7.617110
11
3.781830
21
7.068072
0
LINE
8
linksonder
10
3.781830
20
7.068072
11
4.531830
21
6.867110
0
LINE
8
linksonder
10
4.531830
20
6.867110
11
5.281830
21
7.068072
0
LINE
8
linksonder
10
5.281830
20
7.068072
11
5.830868
21
7.617110
0
LINE
8
linksonder
10
5.830868
20
7.617110
11
6.031830
21
8.367110
0
LINE
8
linksonder
10
6.031830
20
8.367110
11
6.031830
21
8.367110
 0 
ENDSEC
 0 
EOF