  0
SECTION
  2
HEADER
  9
$ACADVER
  1
AC1014
  9
$HANDSEED
  5
FFFF
  9
$INSUNITS
 70
     4
  9
$MEASUREMENT
 70
     1
  0
ENDSEC
  0
SECTION
  2
TABLES
  0
TABLE
  2
VPORT
  5
8
330
0
100
AcDbSymbolTable
 70
     4
  0
VPORT
  5
2E
330
8
100
AcDbSymbolTableRecord
100
AcDbViewportTableRecord
  2
*ACTIVE
 70
     0
 10
0.0
 20
0.0
 11
1.0
 21
1.0
 12
210.0
 22
148.5
 13
0.0
 23
0.0
 14
10.0
 24
10.0
 15
10.0
 25
10.0
 16
0.0
 26
0.0
 36
1.0
 17
0.0
 27
0.0
 37
0.0
 40
341.0
 41
1.24
 42
50.0
 43
0.0
 44
0.0
 50
0.0
 51
0.0
 71
     0
 72
   100
 73
     1
 74
     3
 75
     0
 76
     0
 77
     0
 78
     0
  0
ENDTAB
  0
TABLE
  2
LTYPE
  5
5
330
0
100
AcDbSymbolTable
 70
     1
  0
LTYPE
  5
14
330
5
100
AcDbSymbolTableRecord
100
AcDbLinetypeTableRecord
  2
BYBLOCK
 70
     0
  3

 72
    65
 73
     0
 40
0.0
  0
LTYPE
  5
15
330
5
100
AcDbSymbolTableRecord
100
AcDbLinetypeTableRecord
  2
BYLAYER
 70
     0
  3

 72
    65
 73
     0
 40
0.0
  0
LTYPE
  5
16
330
5
100
AcDbSymbolTableRecord
100
AcDbLinetypeTableRecord
  2
CONTINUOUS
 70
     0
  3
Solid line
 72
    65
 73
     0
 40
0.0
  0
ENDTAB
  0
TABLE
  2
LAYER
  5
2
100
AcDbSymbolTable
 70
2
  0
LAYER
  5
50
100
AcDbSymbolTableRecord
100
AcDbLayerTableRecord
  2
0
 70
0
  6
CONTINUOUS
  0
LAYER
  5
51
100
AcDbSymbolTableRecord
100
AcDbLayerTableRecord
  2
Layer_1
 70
0
  6
CONTINUOUS
  0
ENDTAB
  0
TABLE
  2
STYLE
  5
3
330
0
100
AcDbSymbolTable
 70
     1
  0
STYLE
  5
11
330
3
100
AcDbSymbolTableRecord
100
AcDbTextStyleTableRecord
  2
STANDARD
 70
     0
 40
0.0
 41
1.0
 50
0.0
 71
     0
 42
2.5
  3
txt
  4

  0
ENDTAB
  0
TABLE
  2
VIEW
  5
6
330
0
100
AcDbSymbolTable
 70
     0
  0
ENDTAB
  0
TABLE
  2
UCS
  5
7
330
0
100
AcDbSymbolTable
 70
     0
  0
ENDTAB
  0
TABLE
  2
APPID
  5
9
330
0
100
AcDbSymbolTable
 70
     2
  0
APPID
  5
12
330
9
100
AcDbSymbolTableRecord
100
AcDbRegAppTableRecord
  2
ACAD
 70
     0
  0
ENDTAB
  0
TABLE
  2
DIMSTYLE
  5
A
330
0
100
AcDbSymbolTable
 70
     1
  0
DIMSTYLE
105
27
330
A
100
AcDbSymbolTableRecord
100
AcDbDimStyleTableRecord
  2
ISO-25
 70
     0
  3

  4

  5

  6

  7

 40
1.0
 41
2.5
 42
0.625
 43
3.75
 44
1.25
 45
0.0
 46
0.0
 47
0.0
 48
0.0
140
2.5
141
2.5
142
0.0
143
0.03937007874016
144
1.0
145
0.0
146
1.0
147
0.625
 71
     0
 72
     0
 73
     0
 74
     0
 75
     0
 76
     0
 77
     1
 78
     8
170
     0
171
     3
172
     1
173
     0
174
     0
175
     0
176
     0
177
     0
178
     0
270
     2
271
     2
272
     2
273
     2
274
     3
340
11
275
     0
280
     0
281
     0
282
     0
283
     0
284
     8
285
     0
286
     0
287
     3
288
     0
  0
ENDTAB
  0
TABLE
  2
BLOCK_RECORD
  5
1
330
0
100
AcDbSymbolTable
 70
     1
  0
BLOCK_RECORD
  5
1F
330
1
100
AcDbSymbolTableRecord
100
AcDbBlockTableRecord
  2
*MODEL_SPACE
  0
BLOCK_RECORD
  5
1B
330
1
100
AcDbSymbolTableRecord
100
AcDbBlockTableRecord
  2
*PAPER_SPACE
  0
ENDTAB
  0
ENDSEC
  0
SECTION
  2
BLOCKS
  0
BLOCK
  5
20
330
1F
100
AcDbEntity
  8
0
100
AcDbBlockBegin
  2
*MODEL_SPACE
 70
     0
 10
0.0
 20
0.0
 30
0.0
  3
*MODEL_SPACE
  1

  0
ENDBLK
  5
21
330
1F
100
AcDbEntity
  8
0
100
AcDbBlockEnd
  0
BLOCK
  5
1C
330
1B
100
AcDbEntity
 67
     1
  8
0
100
AcDbBlockBegin
  2
*PAPER_SPACE
  1

  0
ENDBLK
  5
1D
330
1B
100
AcDbEntity
 67
     1
  8
0
100
AcDbBlockEnd
  0
ENDSEC
  0
SECTION
  2
ENTITIES
  0
SPLINE
  5
100
100
AcDbEntity
  8
0
 62
7
100
AcDbSpline
 70
8
 71
3
 72
8
 73
4
 74
0
 40
0
 40
0
 40
0
 40
0
 40
1
 40
1
 40
1
 40
1
 10
209.614089
 20
34.885598
 30
0.0
 10
206.151520
 20
34.885598
 30
0.0
 10
203.290441
 20
32.025034
 30
0.0
 10
203.290441
 20
28.562465
 30
0.0
  0
SPLINE
  5
101
100
AcDbEntity
  8
0
 62
7
100
AcDbSpline
 70
8
 71
3
 72
8
 73
4
 74
0
 40
0
 40
0
 40
0
 40
0
 40
1
 40
1
 40
1
 40
1
 10
203.290441
 20
28.562465
 30
0.0
 10
203.290441
 20
25.100023
 30
0.0
 10
206.151238
 20
22.238817
 30
0.0
 10
209.614089
 20
22.238817
 30
0.0
  0
SPLINE
  5
102
100
AcDbEntity
  8
0
 62
7
100
AcDbSpline
 70
8
 71
3
 72
8
 73
4
 74
0
 40
0
 40
0
 40
0
 40
0
 40
1
 40
1
 40
1
 40
1
 10
209.614089
 20
22.238817
 30
0.0
 10
213.076814
 20
22.238817
 30
0.0
 10
215.937222
 20
25.099740
 30
0.0
 10
215.937222
 20
28.562465
 30
0.0
  0
SPLINE
  5
103
100
AcDbEntity
  8
0
 62
7
100
AcDbSpline
 70
8
 71
3
 72
8
 73
4
 74
0
 40
0
 40
0
 40
0
 40
0
 40
1
 40
1
 40
1
 40
1
 10
215.937222
 20
28.562465
 30
0.0
 10
215.937222
 20
32.025316
 30
0.0
 10
213.076531
 20
34.885598
 30
0.0
 10
209.614089
 20
34.885598
 30
0.0
  0
SPLINE
  5
104
100
AcDbEntity
  8
0
 62
7
100
AcDbSpline
 70
8
 71
3
 72
8
 73
4
 74
0
 40
0
 40
0
 40
0
 40
0
 40
1
 40
1
 40
1
 40
1
 10
209.614089
 20
74.891450
 30
0.0
 10
206.151408
 20
74.891450
 30
0.0
 10
203.290441
 20
72.030320
 30
0.0
 10
203.290441
 20
68.567801
 30
0.0
  0
SPLINE
  5
105
100
AcDbEntity
  8
0
 62
7
100
AcDbSpline
 70
8
 71
3
 72
8
 73
4
 74
0
 40
0
 40
0
 40
0
 40
0
 40
1
 40
1
 40
1
 40
1
 10
203.290441
 20
68.567801
 30
0.0
 10
203.290441
 20
65.105270
 30
0.0
 10
206.151436
 20
62.243636
 30
0.0
 10
209.614089
 20
62.243636
 30
0.0
  0
SPLINE
  5
106
100
AcDbEntity
  8
0
 62
7
100
AcDbSpline
 70
8
 71
3
 72
8
 73
4
 74
0
 40
0
 40
0
 40
0
 40
0
 40
1
 40
1
 40
1
 40
1
 10
209.614089
 20
62.243636
 30
0.0
 10
213.076616
 20
62.243635
 30
0.0
 10
215.937222
 20
65.104990
 30
0.0
 10
215.937222
 20
68.567801
 30
0.0
  0
SPLINE
  5
107
100
AcDbEntity
  8
0
 62
7
100
AcDbSpline
 70
8
 71
3
 72
8
 73
4
 74
0
 40
0
 40
0
 40
0
 40
0
 40
1
 40
1
 40
1
 40
1
 10
215.937222
 20
68.567801
 30
0.0
 10
215.937222
 20
72.030600
 30
0.0
 10
213.076644
 20
74.891450
 30
0.0
 10
209.614089
 20
74.891450
 30
0.0
  0
LWPOLYLINE
  5
108
100
AcDbEntity
  8
0
 62
7
100
AcDbPolyline
 90
1
 70
1
 10
209.614089
 20
34.885598
 30
0.0
  0
SPLINE
  5
109
100
AcDbEntity
  8
0
 62
7
100
AcDbSpline
 70
8
 71
3
 72
8
 73
4
 74
0
 40
0
 40
0
 40
0
 40
0
 40
1
 40
1
 40
1
 40
1
 10
55.944300
 20
57.111129
 30
0.0
 10
53.350436
 20
57.143418
 30
0.0
 10
50.879191
 20
55.383131
 30
0.0
 10
50.007190
 20
52.949623
 30
0.0
  0
SPLINE
  5
10a
100
AcDbEntity
  8
0
 62
7
100
AcDbSpline
 70
8
 71
3
 72
8
 73
4
 74
0
 40
0
 40
0
 40
0
 40
0
 40
1
 40
1
 40
1
 40
1
 10
50.007190
 20
52.949623
 30
0.0
 10
49.153425
 20
50.725824
 30
0.0
 10
49.747507
 20
48.059369
 30
0.0
 10
51.430360
 20
46.381542
 30
0.0
  0
SPLINE
  5
10b
100
AcDbEntity
  8
0
 62
7
100
AcDbSpline
 70
8
 71
3
 72
8
 73
4
 74
0
 40
0
 40
0
 40
0
 40
0
 40
1
 40
1
 40
1
 40
1
 10
51.430360
 20
46.381542
 30
0.0
 10
53.067832
 20
44.660861
 30
0.0
 10
55.716835
 20
44.001159
 30
0.0
 10
57.960715
 20
44.799210
 30
0.0
  0
SPLINE
  5
10c
100
AcDbEntity
  8
0
 62
7
100
AcDbSpline
 70
8
 71
3
 72
8
 73
4
 74
0
 40
0
 40
0
 40
0
 40
0
 40
1
 40
1
 40
1
 40
1
 10
57.960715
 20
44.799210
 30
0.0
 10
60.439238
 20
45.618343
 30
0.0
 10
62.265707
 20
48.087563
 30
0.0
 10
62.266917
 20
50.706347
 30
0.0
  0
SPLINE
  5
10d
100
AcDbEntity
  8
0
 62
7
100
AcDbSpline
 70
8
 71
3
 72
8
 73
4
 74
0
 40
0
 40
0
 40
0
 40
0
 40
1
 40
1
 40
1
 40
1
 10
62.266917
 20
50.706347
 30
0.0
 10
62.333557
 20
53.301066
 30
0.0
 10
60.602610
 20
55.794926
 30
0.0
 10
58.178792
 20
56.696684
 30
0.0
  0
SPLINE
  5
10e
100
AcDbEntity
  8
0
 62
7
100
AcDbSpline
 70
8
 71
3
 72
8
 73
4
 74
0
 40
0
 40
0
 40
0
 40
0
 40
1
 40
1
 40
1
 40
1
 10
58.178792
 20
56.696684
 30
0.0
 10
57.467725
 20
56.970292
 30
0.0
 10
56.706198
 20
57.111703
 30
0.0
 10
55.944300
 20
57.111129
 30
0.0
  0
LWPOLYLINE
  5
10f
100
AcDbEntity
  8
0
 62
7
100
AcDbPolyline
 90
1
 70
1
 10
209.614089
 20
74.891450
 30
0.0
  0
SPLINE
  5
110
100
AcDbEntity
  8
0
 62
7
100
AcDbSpline
 70
8
 71
3
 72
8
 73
4
 74
0
 40
0
 40
0
 40
0
 40
0
 40
1
 40
1
 40
1
 40
1
 10
209.614089
 20
61.556338
 30
0.0
 10
206.151408
 20
61.556338
 30
0.0
 10
203.290441
 20
58.694691
 30
0.0
 10
203.290441
 20
55.232172
 30
0.0
  0
SPLINE
  5
111
100
AcDbEntity
  8
0
 62
7
100
AcDbSpline
 70
8
 71
3
 72
8
 73
4
 74
0
 40
0
 40
0
 40
0
 40
0
 40
1
 40
1
 40
1
 40
1
 10
203.290441
 20
55.232172
 30
0.0
 10
203.290441
 20
51.769642
 30
0.0
 10
206.151436
 20
48.909042
 30
0.0
 10
209.614089
 20
48.909042
 30
0.0
  0
SPLINE
  5
112
100
AcDbEntity
  8
0
 62
7
100
AcDbSpline
 70
8
 71
3
 72
8
 73
4
 74
0
 40
0
 40
0
 40
0
 40
0
 40
1
 40
1
 40
1
 40
1
 10
209.614089
 20
48.909042
 30
0.0
 10
213.076616
 20
48.909042
 30
0.0
 10
215.937222
 20
51.769361
 30
0.0
 10
215.937222
 20
55.232172
 30
0.0
  0
SPLINE
  5
113
100
AcDbEntity
  8
0
 62
7
100
AcDbSpline
 70
8
 71
3
 72
8
 73
4
 74
0
 40
0
 40
0
 40
0
 40
0
 40
1
 40
1
 40
1
 40
1
 10
215.937222
 20
55.232172
 30
0.0
 10
215.937222
 20
58.694971
 30
0.0
 10
213.076644
 20
61.556338
 30
0.0
 10
209.614089
 20
61.556338
 30
0.0
  0
LWPOLYLINE
  5
114
100
AcDbEntity
  8
0
 62
7
100
AcDbPolyline
 90
1
 70
1
 10
55.944300
 20
57.111129
 30
0.0
  0
SPLINE
  5
115
100
AcDbEntity
  8
0
 62
7
100
AcDbSpline
 70
8
 71
3
 72
8
 73
4
 74
0
 40
0
 40
0
 40
0
 40
0
 40
1
 40
1
 40
1
 40
1
 10
209.614089
 20
48.220708
 30
0.0
 10
206.151520
 20
48.220708
 30
0.0
 10
203.290441
 20
45.359629
 30
0.0
 10
203.290441
 20
41.897060
 30
0.0
  0
SPLINE
  5
116
100
AcDbEntity
  8
0
 62
7
100
AcDbSpline
 70
8
 71
3
 72
8
 73
4
 74
0
 40
0
 40
0
 40
0
 40
0
 40
1
 40
1
 40
1
 40
1
 10
203.290441
 20
41.897060
 30
0.0
 10
203.290441
 20
38.434618
 30
0.0
 10
206.151238
 20
35.573927
 30
0.0
 10
209.614089
 20
35.573927
 30
0.0
  0
SPLINE
  5
117
100
AcDbEntity
  8
0
 62
7
100
AcDbSpline
 70
8
 71
3
 72
8
 73
4
 74
0
 40
0
 40
0
 40
0
 40
0
 40
1
 40
1
 40
1
 40
1
 10
209.614089
 20
35.573927
 30
0.0
 10
213.076814
 20
35.573927
 30
0.0
 10
215.937222
 20
38.434336
 30
0.0
 10
215.937222
 20
41.897060
 30
0.0
  0
SPLINE
  5
118
100
AcDbEntity
  8
0
 62
7
100
AcDbSpline
 70
8
 71
3
 72
8
 73
4
 74
0
 40
0
 40
0
 40
0
 40
0
 40
1
 40
1
 40
1
 40
1
 10
215.937222
 20
41.897060
 30
0.0
 10
215.937222
 20
45.359912
 30
0.0
 10
213.076531
 20
48.220708
 30
0.0
 10
209.614089
 20
48.220708
 30
0.0
  0
LWPOLYLINE
  5
119
100
AcDbEntity
  8
0
 62
7
100
AcDbPolyline
 90
1
 70
1
 10
209.614089
 20
61.556338
 30
0.0
  0
LWPOLYLINE
  5
11a
100
AcDbEntity
  8
0
 62
7
100
AcDbPolyline
 90
1
 70
1
 10
209.614089
 20
48.220708
 30
0.0
  0
SPLINE
  5
11b
100
AcDbEntity
  8
0
 62
7
100
AcDbSpline
 70
8
 71
3
 72
8
 73
4
 74
0
 40
0
 40
0
 40
0
 40
0
 40
1
 40
1
 40
1
 40
1
 10
219.651075
 20
87.250032
 30
0.0
 10
220.181272
 20
87.250032
 30
0.0
 10
220.689753
 20
87.039565
 30
0.0
 10
221.064658
 20
86.664931
 30
0.0
  0
SPLINE
  5
11c
100
AcDbEntity
  8
0
 62
7
100
AcDbSpline
 70
8
 71
3
 72
8
 73
4
 74
0
 40
0
 40
0
 40
0
 40
0
 40
1
 40
1
 40
1
 40
1
 10
221.064658
 20
86.664931
 30
0.0
 10
221.439564
 20
86.290298
 30
0.0
 10
221.650183
 20
85.782185
 30
0.0
 10
221.650183
 20
85.252374
 30
0.0
  0
LWPOLYLINE
  5
11d
100
AcDbEntity
  8
0
 62
7
100
AcDbPolyline
 90
2
 70
0
 10
0.049059
 20
87.250032
 30
0.0
 10
219.651075
 20
87.250032
 30
0.0
  0
SPLINE
  5
11e
100
AcDbEntity
  8
0
 62
7
100
AcDbSpline
 70
8
 71
3
 72
8
 73
4
 74
0
 40
0
 40
0
 40
0
 40
0
 40
1
 40
1
 40
1
 40
1
 10
221.650183
 20
4.047576
 30
0.0
 10
221.650183
 20
3.517764
 30
0.0
 10
221.439564
 20
3.009652
 30
0.0
 10
221.064658
 20
2.635018
 30
0.0
  0
SPLINE
  5
11f
100
AcDbEntity
  8
0
 62
7
100
AcDbSpline
 70
8
 71
3
 72
8
 73
4
 74
0
 40
0
 40
0
 40
0
 40
0
 40
1
 40
1
 40
1
 40
1
 10
221.064658
 20
2.635018
 30
0.0
 10
220.689753
 20
2.260384
 30
0.0
 10
220.181272
 20
2.049917
 30
0.0
 10
219.651075
 20
2.049917
 30
0.0
  0
LWPOLYLINE
  5
120
100
AcDbEntity
  8
0
 62
7
100
AcDbPolyline
 90
2
 70
0
 10
221.650183
 20
85.252374
 30
0.0
 10
221.650183
 20
4.047576
 30
0.0
  0
SPLINE
  5
121
100
AcDbEntity
  8
0
 62
7
100
AcDbSpline
 70
8
 71
3
 72
8
 73
4
 74
0
 40
0
 40
0
 40
0
 40
0
 40
1
 40
1
 40
1
 40
1
 10
0.049059
 20
2.049917
 30
0.0
 10
-0.481138
 20
2.049917
 30
0.0
 10
-0.989619
 20
2.260384
 30
0.0
 10
-1.364524
 20
2.635018
 30
0.0
  0
SPLINE
  5
122
100
AcDbEntity
  8
0
 62
7
100
AcDbSpline
 70
8
 71
3
 72
8
 73
4
 74
0
 40
0
 40
0
 40
0
 40
0
 40
1
 40
1
 40
1
 40
1
 10
-1.364524
 20
2.635018
 30
0.0
 10
-1.739430
 20
3.009652
 30
0.0
 10
-1.950049
 20
3.517764
 30
0.0
 10
-1.950049
 20
4.047576
 30
0.0
  0
LWPOLYLINE
  5
123
100
AcDbEntity
  8
0
 62
7
100
AcDbPolyline
 90
2
 70
0
 10
219.651075
 20
2.049917
 30
0.0
 10
0.049059
 20
2.049917
 30
0.0
  0
SPLINE
  5
124
100
AcDbEntity
  8
0
 62
7
100
AcDbSpline
 70
8
 71
3
 72
8
 73
4
 74
0
 40
0
 40
0
 40
0
 40
0
 40
1
 40
1
 40
1
 40
1
 10
-1.950049
 20
85.252374
 30
0.0
 10
-1.950049
 20
86.355650
 30
0.0
 10
-1.055018
 20
87.250031
 30
0.0
 10
0.049059
 20
87.250032
 30
0.0
  0
LWPOLYLINE
  5
125
100
AcDbEntity
  8
0
 62
7
100
AcDbPolyline
 90
2
 70
0
 10
-1.950049
 20
4.047576
 30
0.0
 10
-1.950049
 20
85.252374
 30
0.0
  0
SPLINE
  5
126
100
AcDbEntity
  8
0
 62
7
100
AcDbSpline
 70
8
 71
3
 72
8
 73
4
 74
0
 40
0
 40
0
 40
0
 40
0
 40
1
 40
1
 40
1
 40
1
 10
99.324312
 20
8.344223
 30
0.0
 10
99.323884
 20
9.172348
 30
0.0
 10
98.652437
 20
9.843449
 30
0.0
 10
97.824312
 20
9.843449
 30
0.0
  0
SPLINE
  5
127
100
AcDbEntity
  8
0
 62
7
100
AcDbSpline
 70
8
 71
3
 72
8
 73
4
 74
0
 40
0
 40
0
 40
0
 40
0
 40
1
 40
1
 40
1
 40
1
 10
97.824312
 20
9.843449
 30
0.0
 10
96.996187
 20
9.843449
 30
0.0
 10
96.324740
 20
9.172348
 30
0.0
 10
96.324312
 20
8.344223
 30
0.0
  0
SPLINE
  5
128
100
AcDbEntity
  8
0
 62
7
100
AcDbSpline
 70
8
 71
3
 72
8
 73
4
 74
0
 40
0
 40
0
 40
0
 40
0
 40
1
 40
1
 40
1
 40
1
 10
96.324312
 20
8.344223
 30
0.0
 10
96.324740
 20
7.516098
 30
0.0
 10
96.996187
 20
6.844997
 30
0.0
 10
97.824312
 20
6.844997
 30
0.0
  0
SPLINE
  5
129
100
AcDbEntity
  8
0
 62
7
100
AcDbSpline
 70
8
 71
3
 72
8
 73
4
 74
0
 40
0
 40
0
 40
0
 40
0
 40
1
 40
1
 40
1
 40
1
 10
97.824312
 20
6.844997
 30
0.0
 10
98.652437
 20
6.844997
 30
0.0
 10
99.323884
 20
7.516098
 30
0.0
 10
99.324312
 20
8.344223
 30
0.0
  0
LWPOLYLINE
  5
12a
100
AcDbEntity
  8
0
 62
7
100
AcDbPolyline
 90
1
 70
1
 10
0.049059
 20
87.250032
 30
0.0
  0
SPLINE
  5
12b
100
AcDbEntity
  8
Layer_1
 62
7
100
AcDbSpline
 70
8
 71
3
 72
8
 73
4
 74
0
 40
0
 40
0
 40
0
 40
0
 40
1
 40
1
 40
1
 40
1
 10
123.536162
 20
80.778549
 30
0.0
 10
123.536041
 20
81.606890
 30
0.0
 10
122.864504
 20
82.278329
 30
0.0
 10
122.036163
 20
82.278329
 30
0.0
  0
SPLINE
  5
12c
100
AcDbEntity
  8
Layer_1
 62
7
100
AcDbSpline
 70
8
 71
3
 72
8
 73
4
 74
0
 40
0
 40
0
 40
0
 40
0
 40
1
 40
1
 40
1
 40
1
 10
122.036163
 20
82.278329
 30
0.0
 10
121.207822
 20
82.278329
 30
0.0
 10
120.536286
 20
81.606890
 30
0.0
 10
120.536165
 20
80.778549
 30
0.0
  0
SPLINE
  5
12d
100
AcDbEntity
  8
Layer_1
 62
7
100
AcDbSpline
 70
8
 71
3
 72
8
 73
4
 74
0
 40
0
 40
0
 40
0
 40
0
 40
1
 40
1
 40
1
 40
1
 10
120.536165
 20
80.778549
 30
0.0
 10
120.536286
 20
79.950208
 30
0.0
 10
121.207822
 20
79.278769
 30
0.0
 10
122.036163
 20
79.278769
 30
0.0
  0
SPLINE
  5
12e
100
AcDbEntity
  8
Layer_1
 62
7
100
AcDbSpline
 70
8
 71
3
 72
8
 73
4
 74
0
 40
0
 40
0
 40
0
 40
0
 40
1
 40
1
 40
1
 40
1
 10
122.036163
 20
79.278769
 30
0.0
 10
122.864504
 20
79.278769
 30
0.0
 10
123.536041
 20
79.950208
 30
0.0
 10
123.536162
 20
80.778549
 30
0.0
  0
LWPOLYLINE
  5
12f
100
AcDbEntity
  8
0
 62
7
100
AcDbPolyline
 90
1
 70
1
 10
99.324312
 20
8.344223
 30
0.0
  0
SPLINE
  5
130
100
AcDbEntity
  8
Layer_1
 62
7
100
AcDbSpline
 70
8
 71
3
 72
8
 73
4
 74
0
 40
0
 40
0
 40
0
 40
0
 40
1
 40
1
 40
1
 40
1
 10
99.360357
 20
80.778553
 30
0.0
 10
99.359930
 20
81.606676
 30
0.0
 10
98.688483
 20
82.277777
 30
0.0
 10
97.860359
 20
82.277777
 30
0.0
  0
SPLINE
  5
131
100
AcDbEntity
  8
Layer_1
 62
7
100
AcDbSpline
 70
8
 71
3
 72
8
 73
4
 74
0
 40
0
 40
0
 40
0
 40
0
 40
1
 40
1
 40
1
 40
1
 10
97.860359
 20
82.277777
 30
0.0
 10
97.032236
 20
82.277777
 30
0.0
 10
96.360789
 20
81.606676
 30
0.0
 10
96.360361
 20
80.778553
 30
0.0
  0
SPLINE
  5
132
100
AcDbEntity
  8
Layer_1
 62
7
100
AcDbSpline
 70
8
 71
3
 72
8
 73
4
 74
0
 40
0
 40
0
 40
0
 40
0
 40
1
 40
1
 40
1
 40
1
 10
96.360361
 20
80.778553
 30
0.0
 10
96.360789
 20
79.950429
 30
0.0
 10
97.032236
 20
79.279329
 30
0.0
 10
97.860359
 20
79.279329
 30
0.0
  0
SPLINE
  5
133
100
AcDbEntity
  8
Layer_1
 62
7
100
AcDbSpline
 70
8
 71
3
 72
8
 73
4
 74
0
 40
0
 40
0
 40
0
 40
0
 40
1
 40
1
 40
1
 40
1
 10
97.860359
 20
79.279329
 30
0.0
 10
98.688483
 20
79.279329
 30
0.0
 10
99.359930
 20
79.950429
 30
0.0
 10
99.360357
 20
80.778553
 30
0.0
  0
LWPOLYLINE
  5
134
100
AcDbEntity
  8
Layer_1
 62
7
100
AcDbPolyline
 90
1
 70
1
 10
123.536162
 20
80.778549
 30
0.0
  0
SPLINE
  5
135
100
AcDbEntity
  8
Layer_1
 62
7
100
AcDbSpline
 70
8
 71
3
 72
8
 73
4
 74
0
 40
0
 40
0
 40
0
 40
0
 40
1
 40
1
 40
1
 40
1
 10
123.499226
 20
8.344323
 30
0.0
 10
123.499105
 20
9.172664
 30
0.0
 10
122.827569
 20
9.844103
 30
0.0
 10
121.999228
 20
9.844103
 30
0.0
  0
SPLINE
  5
136
100
AcDbEntity
  8
Layer_1
 62
7
100
AcDbSpline
 70
8
 71
3
 72
8
 73
4
 74
0
 40
0
 40
0
 40
0
 40
0
 40
1
 40
1
 40
1
 40
1
 10
121.999228
 20
9.844103
 30
0.0
 10
121.170887
 20
9.844103
 30
0.0
 10
120.499350
 20
9.172664
 30
0.0
 10
120.499229
 20
8.344323
 30
0.0
  0
SPLINE
  5
137
100
AcDbEntity
  8
Layer_1
 62
7
100
AcDbSpline
 70
8
 71
3
 72
8
 73
4
 74
0
 40
0
 40
0
 40
0
 40
0
 40
1
 40
1
 40
1
 40
1
 10
120.499229
 20
8.344323
 30
0.0
 10
120.499350
 20
7.515982
 30
0.0
 10
121.170887
 20
6.844543
 30
0.0
 10
121.999228
 20
6.844543
 30
0.0
  0
SPLINE
  5
138
100
AcDbEntity
  8
Layer_1
 62
7
100
AcDbSpline
 70
8
 71
3
 72
8
 73
4
 74
0
 40
0
 40
0
 40
0
 40
0
 40
1
 40
1
 40
1
 40
1
 10
121.999228
 20
6.844543
 30
0.0
 10
122.827569
 20
6.844543
 30
0.0
 10
123.499105
 20
7.515982
 30
0.0
 10
123.499226
 20
8.344323
 30
0.0
  0
LWPOLYLINE
  5
139
100
AcDbEntity
  8
Layer_1
 62
7
100
AcDbPolyline
 90
1
 70
1
 10
99.360357
 20
80.778553
 30
0.0
  0
SPLINE
  5
13a
100
AcDbEntity
  8
Layer_1
 62
7
100
AcDbSpline
 70
8
 71
3
 72
8
 73
4
 74
0
 40
0
 40
0
 40
0
 40
0
 40
1
 40
1
 40
1
 40
1
 10
125.805744
 20
46.668928
 30
0.0
 10
124.951025
 20
46.668925
 30
0.0
 10
124.247186
 20
45.967152
 30
0.0
 10
124.247186
 20
45.112436
 30
0.0
  0
LWPOLYLINE
  5
13b
100
AcDbEntity
  8
Layer_1
 62
7
100
AcDbPolyline
 90
1
 70
1
 10
123.499226
 20
8.344323
 30
0.0
  0
SPLINE
  5
13c
100
AcDbEntity
  8
Layer_1
 62
7
100
AcDbSpline
 70
8
 71
3
 72
8
 73
4
 74
0
 40
0
 40
0
 40
0
 40
0
 40
1
 40
1
 40
1
 40
1
 10
124.247186
 20
38.227594
 30
0.0
 10
124.247186
 20
37.372879
 30
0.0
 10
124.951025
 20
36.669037
 30
0.0
 10
125.805744
 20
36.669035
 30
0.0
  0
LWPOLYLINE
  5
13d
100
AcDbEntity
  8
Layer_1
 62
7
100
AcDbPolyline
 90
2
 70
0
 10
124.247186
 20
45.112436
 30
0.0
 10
124.247186
 20
38.227594
 30
0.0
  0
SPLINE
  5
13e
100
AcDbEntity
  8
Layer_1
 62
7
100
AcDbSpline
 70
8
 71
3
 72
8
 73
4
 74
0
 40
0
 40
0
 40
0
 40
0
 40
1
 40
1
 40
1
 40
1
 10
142.690483
 20
36.669035
 30
0.0
 10
143.545192
 20
36.669037
 30
0.0
 10
144.246971
 20
37.372879
 30
0.0
 10
144.246971
 20
38.227594
 30
0.0
  0
LWPOLYLINE
  5
13f
100
AcDbEntity
  8
Layer_1
 62
7
100
AcDbPolyline
 90
2
 70
0
 10
125.805744
 20
36.669035
 30
0.0
 10
142.690483
 20
36.669035
 30
0.0
  0
SPLINE
  5
140
100
AcDbEntity
  8
Layer_1
 62
7
100
AcDbSpline
 70
8
 71
3
 72
8
 73
4
 74
0
 40
0
 40
0
 40
0
 40
0
 40
1
 40
1
 40
1
 40
1
 10
144.246971
 20
45.112436
 30
0.0
 10
144.246971
 20
45.967152
 30
0.0
 10
143.545192
 20
46.668925
 30
0.0
 10
142.690483
 20
46.668928
 30
0.0
  0
LWPOLYLINE
  5
141
100
AcDbEntity
  8
Layer_1
 62
7
100
AcDbPolyline
 90
2
 70
0
 10
144.246971
 20
38.227594
 30
0.0
 10
144.246971
 20
45.112436
 30
0.0
  0
SPLINE
  5
142
100
AcDbEntity
  8
Layer_1
 62
7
100
AcDbSpline
 70
8
 71
3
 72
8
 73
4
 74
0
 40
0
 40
0
 40
0
 40
0
 40
1
 40
1
 40
1
 40
1
 10
216.930937
 20
80.767860
 30
0.0
 10
216.930937
 20
81.303758
 30
0.0
 10
216.645039
 20
81.798948
 30
0.0
 10
216.180938
 20
82.066897
 30
0.0
  0
SPLINE
  5
143
100
AcDbEntity
  8
Layer_1
 62
7
100
AcDbSpline
 70
8
 71
3
 72
8
 73
4
 74
0
 40
0
 40
0
 40
0
 40
0
 40
1
 40
1
 40
1
 40
1
 10
216.180938
 20
82.066897
 30
0.0
 10
215.716837
 20
82.334845
 30
0.0
 10
215.145041
 20
82.334845
 30
0.0
 10
214.680940
 20
82.066897
 30
0.0
  0
SPLINE
  5
144
100
AcDbEntity
  8
Layer_1
 62
7
100
AcDbSpline
 70
8
 71
3
 72
8
 73
4
 74
0
 40
0
 40
0
 40
0
 40
0
 40
1
 40
1
 40
1
 40
1
 10
214.680940
 20
82.066897
 30
0.0
 10
214.216838
 20
81.798948
 30
0.0
 10
213.930940
 20
81.303758
 30
0.0
 10
213.930940
 20
80.767860
 30
0.0
  0
SPLINE
  5
145
100
AcDbEntity
  8
Layer_1
 62
7
100
AcDbSpline
 70
8
 71
3
 72
8
 73
4
 74
0
 40
0
 40
0
 40
0
 40
0
 40
1
 40
1
 40
1
 40
1
 10
213.930940
 20
80.767860
 30
0.0
 10
213.930940
 20
80.231962
 30
0.0
 10
214.216838
 20
79.736772
 30
0.0
 10
214.680940
 20
79.468823
 30
0.0
  0
SPLINE
  5
146
100
AcDbEntity
  8
Layer_1
 62
7
100
AcDbSpline
 70
8
 71
3
 72
8
 73
4
 74
0
 40
0
 40
0
 40
0
 40
0
 40
1
 40
1
 40
1
 40
1
 10
214.680940
 20
79.468823
 30
0.0
 10
215.145041
 20
79.200874
 30
0.0
 10
215.716837
 20
79.200874
 30
0.0
 10
216.180938
 20
79.468823
 30
0.0
  0
SPLINE
  5
147
100
AcDbEntity
  8
Layer_1
 62
7
100
AcDbSpline
 70
8
 71
3
 72
8
 73
4
 74
0
 40
0
 40
0
 40
0
 40
0
 40
1
 40
1
 40
1
 40
1
 10
216.180938
 20
79.468823
 30
0.0
 10
216.645039
 20
79.736772
 30
0.0
 10
216.930937
 20
80.231962
 30
0.0
 10
216.930937
 20
80.767860
 30
0.0
  0
LWPOLYLINE
  5
148
100
AcDbEntity
  8
Layer_1
 62
7
100
AcDbPolyline
 90
2
 70
0
 10
142.690483
 20
46.668928
 30
0.0
 10
125.805744
 20
46.668928
 30
0.0
  0
SPLINE
  5
149
100
AcDbEntity
  8
Layer_1
 62
7
100
AcDbSpline
 70
8
 71
3
 72
8
 73
4
 74
0
 40
0
 40
0
 40
0
 40
0
 40
1
 40
1
 40
1
 40
1
 10
6.031828
 20
80.767860
 30
0.0
 10
6.031828
 20
81.303758
 30
0.0
 10
5.745930
 20
81.798948
 30
0.0
 10
5.281828
 20
82.066897
 30
0.0
  0
SPLINE
  5
14a
100
AcDbEntity
  8
Layer_1
 62
7
100
AcDbSpline
 70
8
 71
3
 72
8
 73
4
 74
0
 40
0
 40
0
 40
0
 40
0
 40
1
 40
1
 40
1
 40
1
 10
5.281828
 20
82.066897
 30
0.0
 10
4.817727
 20
82.334845
 30
0.0
 10
4.245931
 20
82.334845
 30
0.0
 10
3.781830
 20
82.066897
 30
0.0
  0
SPLINE
  5
14b
100
AcDbEntity
  8
Layer_1
 62
7
100
AcDbSpline
 70
8
 71
3
 72
8
 73
4
 74
0
 40
0
 40
0
 40
0
 40
0
 40
1
 40
1
 40
1
 40
1
 10
3.781830
 20
82.066897
 30
0.0
 10
3.317729
 20
81.798948
 30
0.0
 10
3.031831
 20
81.303758
 30
0.0
 10
3.031831
 20
80.767860
 30
0.0
  0
SPLINE
  5
14c
100
AcDbEntity
  8
Layer_1
 62
7
100
AcDbSpline
 70
8
 71
3
 72
8
 73
4
 74
0
 40
0
 40
0
 40
0
 40
0
 40
1
 40
1
 40
1
 40
1
 10
3.031831
 20
80.767860
 30
0.0
 10
3.031831
 20
80.231962
 30
0.0
 10
3.317729
 20
79.736772
 30
0.0
 10
3.781830
 20
79.468823
 30
0.0
  0
SPLINE
  5
14d
100
AcDbEntity
  8
Layer_1
 62
7
100
AcDbSpline
 70
8
 71
3
 72
8
 73
4
 74
0
 40
0
 40
0
 40
0
 40
0
 40
1
 40
1
 40
1
 40
1
 10
3.781830
 20
79.468823
 30
0.0
 10
4.245931
 20
79.200874
 30
0.0
 10
4.817727
 20
79.200874
 30
0.0
 10
5.281828
 20
79.468823
 30
0.0
  0
SPLINE
  5
14e
100
AcDbEntity
  8
Layer_1
 62
7
100
AcDbSpline
 70
8
 71
3
 72
8
 73
4
 74
0
 40
0
 40
0
 40
0
 40
0
 40
1
 40
1
 40
1
 40
1
 10
5.281828
 20
79.468823
 30
0.0
 10
5.745930
 20
79.736772
 30
0.0
 10
6.031828
 20
80.231962
 30
0.0
 10
6.031828
 20
80.767860
 30
0.0
  0
LWPOLYLINE
  5
14f
100
AcDbEntity
  8
Layer_1
 62
7
100
AcDbPolyline
 90
1
 70
1
 10
216.930937
 20
80.767860
 30
0.0
  0
SPLINE
  5
150
100
AcDbEntity
  8
Layer_1
 62
7
100
AcDbSpline
 70
8
 71
3
 72
8
 73
4
 74
0
 40
0
 40
0
 40
0
 40
0
 40
1
 40
1
 40
1
 40
1
 10
216.930937
 20
8.367368
 30
0.0
 10
216.930937
 20
8.903266
 30
0.0
 10
216.645039
 20
9.398456
 30
0.0
 10
216.180938
 20
9.666404
 30
0.0
  0
SPLINE
  5
151
100
AcDbEntity
  8
Layer_1
 62
7
100
AcDbSpline
 70
8
 71
3
 72
8
 73
4
 74
0
 40
0
 40
0
 40
0
 40
0
 40
1
 40
1
 40
1
 40
1
 10
216.180938
 20
9.666404
 30
0.0
 10
215.716837
 20
9.934353
 30
0.0
 10
215.145041
 20
9.934353
 30
0.0
 10
214.680940
 20
9.666404
 30
0.0
  0
SPLINE
  5
152
100
AcDbEntity
  8
Layer_1
 62
7
100
AcDbSpline
 70
8
 71
3
 72
8
 73
4
 74
0
 40
0
 40
0
 40
0
 40
0
 40
1
 40
1
 40
1
 40
1
 10
214.680940
 20
9.666404
 30
0.0
 10
214.216838
 20
9.398456
 30
0.0
 10
213.930940
 20
8.903266
 30
0.0
 10
213.930940
 20
8.367368
 30
0.0
  0
SPLINE
  5
153
100
AcDbEntity
  8
Layer_1
 62
7
100
AcDbSpline
 70
8
 71
3
 72
8
 73
4
 74
0
 40
0
 40
0
 40
0
 40
0
 40
1
 40
1
 40
1
 40
1
 10
213.930940
 20
8.367368
 30
0.0
 10
213.930940
 20
7.831470
 30
0.0
 10
214.216838
 20
7.336280
 30
0.0
 10
214.680940
 20
7.068331
 30
0.0
  0
SPLINE
  5
154
100
AcDbEntity
  8
Layer_1
 62
7
100
AcDbSpline
 70
8
 71
3
 72
8
 73
4
 74
0
 40
0
 40
0
 40
0
 40
0
 40
1
 40
1
 40
1
 40
1
 10
214.680940
 20
7.068331
 30
0.0
 10
215.145041
 20
6.800382
 30
0.0
 10
215.716837
 20
6.800382
 30
0.0
 10
216.180938
 20
7.068331
 30
0.0
  0
SPLINE
  5
155
100
AcDbEntity
  8
Layer_1
 62
7
100
AcDbSpline
 70
8
 71
3
 72
8
 73
4
 74
0
 40
0
 40
0
 40
0
 40
0
 40
1
 40
1
 40
1
 40
1
 10
216.180938
 20
7.068331
 30
0.0
 10
216.645039
 20
7.336280
 30
0.0
 10
216.930937
 20
7.831470
 30
0.0
 10
216.930937
 20
8.367368
 30
0.0
  0
LWPOLYLINE
  5
156
100
AcDbEntity
  8
Layer_1
 62
7
100
AcDbPolyline
 90
1
 70
1
 10
6.031828
 20
80.767860
 30
0.0
  0
SPLINE
  5
157
100
AcDbEntity
  8
Layer_1
 62
7
100
AcDbSpline
 70
8
 71
3
 72
8
 73
4
 74
0
 40
0
 40
0
 40
0
 40
0
 40
1
 40
1
 40
1
 40
1
 10
6.031828
 20
8.367368
 30
0.0
 10
6.031828
 20
8.903266
 30
0.0
 10
5.745930
 20
9.398456
 30
0.0
 10
5.281828
 20
9.666404
 30
0.0
  0
SPLINE
  5
158
100
AcDbEntity
  8
Layer_1
 62
7
100
AcDbSpline
 70
8
 71
3
 72
8
 73
4
 74
0
 40
0
 40
0
 40
0
 40
0
 40
1
 40
1
 40
1
 40
1
 10
5.281828
 20
9.666404
 30
0.0
 10
4.817727
 20
9.934353
 30
0.0
 10
4.245931
 20
9.934353
 30
0.0
 10
3.781830
 20
9.666404
 30
0.0
  0
SPLINE
  5
159
100
AcDbEntity
  8
Layer_1
 62
7
100
AcDbSpline
 70
8
 71
3
 72
8
 73
4
 74
0
 40
0
 40
0
 40
0
 40
0
 40
1
 40
1
 40
1
 40
1
 10
3.781830
 20
9.666404
 30
0.0
 10
3.317729
 20
9.398456
 30
0.0
 10
3.031831
 20
8.903266
 30
0.0
 10
3.031831
 20
8.367368
 30
0.0
  0
SPLINE
  5
15a
100
AcDbEntity
  8
Layer_1
 62
7
100
AcDbSpline
 70
8
 71
3
 72
8
 73
4
 74
0
 40
0
 40
0
 40
0
 40
0
 40
1
 40
1
 40
1
 40
1
 10
3.031831
 20
8.367368
 30
0.0
 10
3.031831
 20
7.831470
 30
0.0
 10
3.317729
 20
7.336280
 30
0.0
 10
3.781830
 20
7.068331
 30
0.0
  0
SPLINE
  5
15b
100
AcDbEntity
  8
Layer_1
 62
7
100
AcDbSpline
 70
8
 71
3
 72
8
 73
4
 74
0
 40
0
 40
0
 40
0
 40
0
 40
1
 40
1
 40
1
 40
1
 10
3.781830
 20
7.068331
 30
0.0
 10
4.245931
 20
6.800382
 30
0.0
 10
4.817727
 20
6.800382
 30
0.0
 10
5.281828
 20
7.068331
 30
0.0
  0
SPLINE
  5
15c
100
AcDbEntity
  8
Layer_1
 62
7
100
AcDbSpline
 70
8
 71
3
 72
8
 73
4
 74
0
 40
0
 40
0
 40
0
 40
0
 40
1
 40
1
 40
1
 40
1
 10
5.281828
 20
7.068331
 30
0.0
 10
5.745930
 20
7.336280
 30
0.0
 10
6.031828
 20
7.831470
 30
0.0
 10
6.031828
 20
8.367368
 30
0.0
  0
LWPOLYLINE
  5
15d
100
AcDbEntity
  8
Layer_1
 62
7
100
AcDbPolyline
 90
1
 70
1
 10
216.930937
 20
8.367368
 30
0.0
  0
LWPOLYLINE
  5
15e
100
AcDbEntity
  8
Layer_1
 62
7
100
AcDbPolyline
 90
1
 70
1
 10
6.031828
 20
8.367368
 30
0.0
  0
ENDSEC
  0
SECTION
  2
OBJECTS
  0
DICTIONARY
  5
C
330
0
100
AcDbDictionary
  3
ACAD_GROUP
350
D
  3
ACAD_MLINESTYLE
350
17
  0
DICTIONARY
  5
D
330
C
100
AcDbDictionary
  0
DICTIONARY
  5
1A
330
C
100
AcDbDictionary
  0
DICTIONARY
  5
17
330
C
100
AcDbDictionary
  3
STANDARD
350
18
  0
DICTIONARY
  5
19
330
C
100
AcDbDictionary
  0
ENDSEC
  0
EOF
