  0
SECTION
  2
HEADER
  9
$ACADVER
  1
AC1014
  9
$HANDSEED
  5
FFFF
  9
$INSUNITS
 70
     4
  9
$MEASUREMENT
 70
     1
  0
ENDSEC
  0
SECTION
  2
TABLES
  0
TABLE
  2
VPORT
  5
8
330
0
100
AcDbSymbolTable
 70
     4
  0
VPORT
  5
2E
330
8
100
AcDbSymbolTableRecord
100
AcDbViewportTableRecord
  2
*ACTIVE
 70
     0
 10
0.0
 20
0.0
 11
1.0
 21
1.0
 12
210.0
 22
148.5
 13
0.0
 23
0.0
 14
10.0
 24
10.0
 15
10.0
 25
10.0
 16
0.0
 26
0.0
 36
1.0
 17
0.0
 27
0.0
 37
0.0
 40
341.0
 41
1.24
 42
50.0
 43
0.0
 44
0.0
 50
0.0
 51
0.0
 71
     0
 72
   100
 73
     1
 74
     3
 75
     0
 76
     0
 77
     0
 78
     0
  0
ENDTAB
  0
TABLE
  2
LTYPE
  5
5
330
0
100
AcDbSymbolTable
 70
     1
  0
LTYPE
  5
14
330
5
100
AcDbSymbolTableRecord
100
AcDbLinetypeTableRecord
  2
BYBLOCK
 70
     0
  3

 72
    65
 73
     0
 40
0.0
  0
LTYPE
  5
15
330
5
100
AcDbSymbolTableRecord
100
AcDbLinetypeTableRecord
  2
BYLAYER
 70
     0
  3

 72
    65
 73
     0
 40
0.0
  0
LTYPE
  5
16
330
5
100
AcDbSymbolTableRecord
100
AcDbLinetypeTableRecord
  2
CONTINUOUS
 70
     0
  3
Solid line
 72
    65
 73
     0
 40
0.0
  0
ENDTAB
  0
TABLE
  2
LAYER
  5
2
100
AcDbSymbolTable
 70
1
  0
LAYER
  5
50
100
AcDbSymbolTableRecord
100
AcDbLayerTableRecord
  2
0
 70
0
  6
CONTINUOUS
  0
ENDTAB
  0
TABLE
  2
STYLE
  5
3
330
0
100
AcDbSymbolTable
 70
     1
  0
STYLE
  5
11
330
3
100
AcDbSymbolTableRecord
100
AcDbTextStyleTableRecord
  2
STANDARD
 70
     0
 40
0.0
 41
1.0
 50
0.0
 71
     0
 42
2.5
  3
txt
  4

  0
ENDTAB
  0
TABLE
  2
VIEW
  5
6
330
0
100
AcDbSymbolTable
 70
     0
  0
ENDTAB
  0
TABLE
  2
UCS
  5
7
330
0
100
AcDbSymbolTable
 70
     0
  0
ENDTAB
  0
TABLE
  2
APPID
  5
9
330
0
100
AcDbSymbolTable
 70
     2
  0
APPID
  5
12
330
9
100
AcDbSymbolTableRecord
100
AcDbRegAppTableRecord
  2
ACAD
 70
     0
  0
ENDTAB
  0
TABLE
  2
DIMSTYLE
  5
A
330
0
100
AcDbSymbolTable
 70
     1
  0
DIMSTYLE
105
27
330
A
100
AcDbSymbolTableRecord
100
AcDbDimStyleTableRecord
  2
ISO-25
 70
     0
  3

  4

  5

  6

  7

 40
1.0
 41
2.5
 42
0.625
 43
3.75
 44
1.25
 45
0.0
 46
0.0
 47
0.0
 48
0.0
140
2.5
141
2.5
142
0.0
143
0.03937007874016
144
1.0
145
0.0
146
1.0
147
0.625
 71
     0
 72
     0
 73
     0
 74
     0
 75
     0
 76
     0
 77
     1
 78
     8
170
     0
171
     3
172
     1
173
     0
174
     0
175
     0
176
     0
177
     0
178
     0
270
     2
271
     2
272
     2
273
     2
274
     3
340
11
275
     0
280
     0
281
     0
282
     0
283
     0
284
     8
285
     0
286
     0
287
     3
288
     0
  0
ENDTAB
  0
TABLE
  2
BLOCK_RECORD
  5
1
330
0
100
AcDbSymbolTable
 70
     1
  0
BLOCK_RECORD
  5
1F
330
1
100
AcDbSymbolTableRecord
100
AcDbBlockTableRecord
  2
*MODEL_SPACE
  0
BLOCK_RECORD
  5
1B
330
1
100
AcDbSymbolTableRecord
100
AcDbBlockTableRecord
  2
*PAPER_SPACE
  0
ENDTAB
  0
ENDSEC
  0
SECTION
  2
BLOCKS
  0
BLOCK
  5
20
330
1F
100
AcDbEntity
  8
0
100
AcDbBlockBegin
  2
*MODEL_SPACE
 70
     0
 10
0.0
 20
0.0
 30
0.0
  3
*MODEL_SPACE
  1

  0
ENDBLK
  5
21
330
1F
100
AcDbEntity
  8
0
100
AcDbBlockEnd
  0
BLOCK
  5
1C
330
1B
100
AcDbEntity
 67
     1
  8
0
100
AcDbBlockBegin
  2
*PAPER_SPACE
  1

  0
ENDBLK
  5
1D
330
1B
100
AcDbEntity
 67
     1
  8
0
100
AcDbBlockEnd
  0
ENDSEC
  0
SECTION
  2
ENTITIES
  0
LWPOLYLINE
  5
100
100
AcDbEntity
  8
0
 62
7
100
AcDbPolyline
 90
29
 70
1
 10
74.290600
 20
57.398400
 30
0.0
 10
73.315143
 20
57.327844
 30
0.0
 10
72.368822
 20
57.100522
 30
0.0
 10
70.633625
 20
56.228664
 30
0.0
 10
69.225091
 20
54.888999
 30
0.0
 10
68.687097
 20
54.076918
 30
0.0
 10
68.283300
 20
53.187700
 30
0.0
 10
67.904410
 20
51.438773
 30
0.0
 10
68.040821
 20
49.657662
 30
0.0
 10
68.658472
 20
47.980145
 30
0.0
 10
69.723300
 20
46.542000
 30
0.0
 10
71.135425
 20
45.443805
 30
0.0
 10
72.797000
 20
44.785812
 30
0.0
 10
74.573625
 20
44.605664
 30
0.0
 10
76.330900
 20
44.941000
 30
0.0
 10
77.238083
 20
45.327103
 30
0.0
 10
78.069506
 20
45.851937
 30
0.0
 10
79.449425
 20
47.246632
 30
0.0
 10
80.359356
 20
48.982762
 30
0.0
 10
80.603295
 20
49.934388
 30
0.0
 10
80.688000
 20
50.918000
 30
0.0
 10
80.630210
 20
51.894792
 30
0.0
 10
80.415002
 20
52.844333
 30
0.0
 10
79.564724
 20
54.590937
 30
0.0
 10
78.241959
 20
56.016373
 30
0.0
 10
77.436142
 20
56.564453
 30
0.0
 10
76.551500
 20
56.979200
 30
0.0
 10
75.440333
 20
57.292907
 30
0.0
 10
74.290600
 20
57.398550
 30
0.0
  0
LWPOLYLINE
  5
101
100
AcDbEntity
  8
0
 62
7
100
AcDbPolyline
 90
33
 70
1
 10
209.480000
 20
34.974000
 30
0.0
 10
208.188797
 20
34.841728
 30
0.0
 10
206.982120
 20
34.462908
 30
0.0
 10
205.886980
 20
33.864537
 30
0.0
 10
204.930387
 20
33.073612
 30
0.0
 10
204.139353
 20
32.117130
 30
0.0
 10
203.540886
 20
31.022086
 30
0.0
 10
203.161998
 20
29.815477
 30
0.0
 10
203.029700
 20
28.524300
 30
0.0
 10
203.161986
 20
27.233126
 30
0.0
 10
203.540844
 20
26.026462
 30
0.0
 10
204.139273
 20
24.931324
 30
0.0
 10
204.930275
 20
23.974725
 30
0.0
 10
205.886848
 20
23.183679
 30
0.0
 10
206.981994
 20
22.585200
 30
0.0
 10
208.188711
 20
22.206302
 30
0.0
 10
209.480000
 20
22.074000
 30
0.0
 10
210.771235
 20
22.206290
 30
0.0
 10
211.977870
 20
22.585158
 30
0.0
 10
213.072918
 20
23.183600
 30
0.0
 10
214.029387
 20
23.974612
 30
0.0
 10
214.820290
 20
24.931192
 30
0.0
 10
215.418636
 20
26.026336
 30
0.0
 10
215.797436
 20
27.233040
 30
0.0
 10
215.929700
 20
28.524300
 30
0.0
 10
215.797419
 20
29.815563
 30
0.0
 10
215.418580
 20
31.022212
 30
0.0
 10
214.820185
 20
32.117262
 30
0.0
 10
214.029237
 20
33.073725
 30
0.0
 10
213.072742
 20
33.864616
 30
0.0
 10
211.977702
 20
34.462950
 30
0.0
 10
210.771120
 20
34.841740
 30
0.0
 10
209.480000
 20
34.974000
 30
0.0
  0
LWPOLYLINE
  5
102
100
AcDbEntity
  8
0
 62
7
100
AcDbPolyline
 90
33
 70
1
 10
209.480000
 20
74.980000
 30
0.0
 10
208.188768
 20
74.847702
 30
0.0
 10
206.982078
 20
74.468814
 30
0.0
 10
205.886936
 20
73.870347
 30
0.0
 10
204.930350
 20
73.079312
 30
0.0
 10
204.139326
 20
72.122720
 30
0.0
 10
203.540872
 20
71.027580
 30
0.0
 10
203.161994
 20
69.820903
 30
0.0
 10
203.029700
 20
68.529700
 30
0.0
 10
203.161994
 20
67.238476
 30
0.0
 10
203.540872
 20
66.031742
 30
0.0
 10
204.139326
 20
64.936522
 30
0.0
 10
204.930350
 20
63.979837
 30
0.0
 10
205.886936
 20
63.188711
 30
0.0
 10
206.982078
 20
62.590164
 30
0.0
 10
208.188768
 20
62.211220
 30
0.0
 10
209.480000
 20
62.078900
 30
0.0
 10
210.771177
 20
62.211207
 30
0.0
 10
211.977786
 20
62.590122
 30
0.0
 10
213.072830
 20
63.188632
 30
0.0
 10
214.029313
 20
63.979725
 30
0.0
 10
214.820237
 20
64.936390
 30
0.0
 10
215.418608
 20
66.031616
 30
0.0
 10
215.797428
 20
67.238389
 30
0.0
 10
215.929700
 20
68.529700
 30
0.0
 10
215.797428
 20
69.820960
 30
0.0
 10
215.418608
 20
71.027664
 30
0.0
 10
214.820237
 20
72.122808
 30
0.0
 10
214.029313
 20
73.079387
 30
0.0
 10
213.072830
 20
73.870400
 30
0.0
 10
211.977786
 20
74.468842
 30
0.0
 10
210.771177
 20
74.847710
 30
0.0
 10
209.480000
 20
74.980000
 30
0.0
  0
LWPOLYLINE
  5
103
100
AcDbEntity
  8
0
 62
7
100
AcDbPolyline
 90
30
 70
1
 10
55.875000
 20
57.449000
 30
0.0
 10
54.891780
 20
57.377883
 30
0.0
 10
53.937936
 20
57.148755
 30
0.0
 10
52.188963
 20
56.269974
 30
0.0
 10
50.769258
 20
54.919681
 30
0.0
 10
50.226999
 20
54.101162
 30
0.0
 10
49.820000
 20
53.204900
 30
0.0
 10
49.438104
 20
51.442127
 30
0.0
 10
49.575594
 20
49.646887
 30
0.0
 10
50.198136
 20
47.956030
 30
0.0
 10
51.271400
 20
46.506400
 30
0.0
 10
52.694750
 20
45.399498
 30
0.0
 10
54.369500
 20
44.736287
 30
0.0
 10
56.160200
 20
44.554708
 30
0.0
 10
57.931400
 20
44.892700
 30
0.0
 10
58.845779
 20
45.281865
 30
0.0
 10
59.683794
 20
45.810861
 30
0.0
 10
61.074650
 20
47.216621
 30
0.0
 10
61.599451
 20
48.057520
 30
0.0
 10
61.991806
 20
48.966520
 30
0.0
 10
62.237696
 20
49.925691
 30
0.0
 10
62.323100
 20
50.917100
 30
0.0
 10
62.264853
 20
51.901636
 30
0.0
 10
62.047942
 20
52.858709
 30
0.0
 10
61.190935
 20
54.619175
 30
0.0
 10
59.857685
 20
56.055903
 30
0.0
 10
59.045471
 20
56.608305
 30
0.0
 10
58.153800
 20
57.026300
 30
0.0
 10
57.033832
 20
57.342496
 30
0.0
 10
55.875000
 20
57.448970
 30
0.0
  0
LWPOLYLINE
  5
104
100
AcDbEntity
  8
0
 62
7
100
AcDbPolyline
 90
33
 70
1
 10
209.480000
 20
61.645000
 30
0.0
 10
208.188768
 20
61.512680
 30
0.0
 10
206.982078
 20
61.133736
 30
0.0
 10
205.886936
 20
60.535189
 30
0.0
 10
204.930350
 20
59.744062
 30
0.0
 10
204.139326
 20
58.787378
 30
0.0
 10
203.540872
 20
57.692158
 30
0.0
 10
203.161994
 20
56.485424
 30
0.0
 10
203.029700
 20
55.194200
 30
0.0
 10
203.161994
 20
53.903023
 30
0.0
 10
203.540872
 20
52.696414
 30
0.0
 10
204.139326
 20
51.601370
 30
0.0
 10
204.930350
 20
50.644887
 30
0.0
 10
205.886936
 20
49.853963
 30
0.0
 10
206.982078
 20
49.255592
 30
0.0
 10
208.188768
 20
48.876772
 30
0.0
 10
209.480000
 20
48.744500
 30
0.0
 10
210.771177
 20
48.876764
 30
0.0
 10
211.977786
 20
49.255564
 30
0.0
 10
213.072830
 20
49.853910
 30
0.0
 10
214.029313
 20
50.644813
 30
0.0
 10
214.820237
 20
51.601282
 30
0.0
 10
215.418608
 20
52.696330
 30
0.0
 10
215.797428
 20
53.902965
 30
0.0
 10
215.929700
 20
55.194200
 30
0.0
 10
215.797428
 20
56.485482
 30
0.0
 10
215.418608
 20
57.692242
 30
0.0
 10
214.820237
 20
58.787466
 30
0.0
 10
214.029313
 20
59.744137
 30
0.0
 10
213.072830
 20
60.535242
 30
0.0
 10
211.977786
 20
61.133764
 30
0.0
 10
210.771177
 20
61.512688
 30
0.0
 10
209.480000
 20
61.645000
 30
0.0
  0
LWPOLYLINE
  5
105
100
AcDbEntity
  8
0
 62
7
100
AcDbPolyline
 90
33
 70
1
 10
209.480000
 20
48.309000
 30
0.0
 10
208.188797
 20
48.176702
 30
0.0
 10
206.982120
 20
47.797814
 30
0.0
 10
205.886980
 20
47.199347
 30
0.0
 10
204.930387
 20
46.408313
 30
0.0
 10
204.139353
 20
45.451720
 30
0.0
 10
203.540886
 20
44.356580
 30
0.0
 10
203.161998
 20
43.149903
 30
0.0
 10
203.029700
 20
41.858700
 30
0.0
 10
203.161986
 20
40.567552
 30
0.0
 10
203.540844
 20
39.360956
 30
0.0
 10
204.139273
 20
38.265914
 30
0.0
 10
204.930275
 20
37.309425
 30
0.0
 10
205.886848
 20
36.518489
 30
0.0
 10
206.981994
 20
35.920106
 30
0.0
 10
208.188711
 20
35.541277
 30
0.0
 10
209.480000
 20
35.409000
 30
0.0
 10
210.771235
 20
35.541268
 30
0.0
 10
211.977870
 20
35.920078
 30
0.0
 10
213.072918
 20
36.518436
 30
0.0
 10
214.029387
 20
37.309350
 30
0.0
 10
214.820290
 20
38.265826
 30
0.0
 10
215.418636
 20
39.360872
 30
0.0
 10
215.797436
 20
40.567494
 30
0.0
 10
215.929700
 20
41.858700
 30
0.0
 10
215.797419
 20
43.149989
 30
0.0
 10
215.418580
 20
44.356706
 30
0.0
 10
214.820185
 20
45.451852
 30
0.0
 10
214.029237
 20
46.408425
 30
0.0
 10
213.072742
 20
47.199427
 30
0.0
 10
211.977702
 20
47.797856
 30
0.0
 10
210.771120
 20
48.176714
 30
0.0
 10
209.480000
 20
48.309000
 30
0.0
  0
LWPOLYLINE
  5
106
100
AcDbEntity
  8
0
 62
7
100
AcDbPolyline
 90
13
 70
1
 10
130.401706
 20
80.846355
 30
0.0
 10
130.200700
 20
81.596347
 30
0.0
 10
129.651661
 20
82.145379
 30
0.0
 10
128.901670
 20
82.346339
 30
0.0
 10
128.151678
 20
82.145379
 30
0.0
 10
127.602646
 20
81.596347
 30
0.0
 10
127.401686
 20
80.846355
 30
0.0
 10
127.602669
 20
80.096364
 30
0.0
 10
128.151704
 20
79.547331
 30
0.0
 10
128.901696
 20
79.346372
 30
0.0
 10
129.651688
 20
79.547331
 30
0.0
 10
130.200720
 20
80.096364
 30
0.0
 10
130.401680
 20
80.846355
 30
0.0
  0
LWPOLYLINE
  5
107
100
AcDbEntity
  8
0
 62
7
100
AcDbPolyline
 90
13
 70
1
 10
92.302186
 20
80.846355
 30
0.0
 10
92.101180
 20
81.596347
 30
0.0
 10
91.552141
 20
82.145379
 30
0.0
 10
90.802150
 20
82.346339
 30
0.0
 10
90.052158
 20
82.145379
 30
0.0
 10
89.503126
 20
81.596347
 30
0.0
 10
89.302166
 20
80.846355
 30
0.0
 10
89.503149
 20
80.096364
 30
0.0
 10
90.052184
 20
79.547331
 30
0.0
 10
90.802176
 20
79.346372
 30
0.0
 10
91.552168
 20
79.547331
 30
0.0
 10
92.101200
 20
80.096364
 30
0.0
 10
92.302160
 20
80.846355
 30
0.0
  0
LWPOLYLINE
  5
108
100
AcDbEntity
  8
0
 62
7
100
AcDbPolyline
 90
13
 70
1
 10
92.292891
 20
14.807716
 30
0.0
 10
92.091885
 20
15.557708
 30
0.0
 10
91.542847
 20
16.106740
 30
0.0
 10
90.792855
 20
16.307700
 30
0.0
 10
90.042863
 20
16.106740
 30
0.0
 10
89.493831
 20
15.557708
 30
0.0
 10
89.292872
 20
14.807716
 30
0.0
 10
89.493854
 20
14.057725
 30
0.0
 10
90.042890
 20
13.508693
 30
0.0
 10
90.792881
 20
13.307733
 30
0.0
 10
91.542873
 20
13.508693
 30
0.0
 10
92.091905
 20
14.057725
 30
0.0
 10
92.292865
 20
14.807716
 30
0.0
  0
LWPOLYLINE
  5
109
100
AcDbEntity
  8
0
 62
7
100
AcDbPolyline
 90
13
 70
1
 10
130.392411
 20
14.807716
 30
0.0
 10
130.191405
 20
15.557708
 30
0.0
 10
129.642367
 20
16.106740
 30
0.0
 10
128.892375
 20
16.307700
 30
0.0
 10
128.142383
 20
16.106740
 30
0.0
 10
127.593351
 20
15.557708
 30
0.0
 10
127.392392
 20
14.807716
 30
0.0
 10
127.593374
 20
14.057725
 30
0.0
 10
128.142410
 20
13.508693
 30
0.0
 10
128.892401
 20
13.307733
 30
0.0
 10
129.642393
 20
13.508693
 30
0.0
 10
130.191425
 20
14.057725
 30
0.0
 10
130.392385
 20
14.807716
 30
0.0
  0
LWPOLYLINE
  5
10a
100
AcDbEntity
  8
0
 62
7
100
AcDbPolyline
 90
20
 70
1
 10
125.665432
 20
46.758962
 30
0.0
 10
125.061327
 20
46.635955
 30
0.0
 10
124.565634
 20
46.301240
 30
0.0
 10
124.230196
 20
45.806269
 30
0.0
 10
124.106863
 20
45.202493
 30
0.0
 10
124.106863
 20
38.317730
 30
0.0
 10
124.230191
 20
37.713626
 30
0.0
 10
124.565619
 20
37.217932
 30
0.0
 10
125.061311
 20
36.882495
 30
0.0
 10
125.665432
 20
36.759161
 30
0.0
 10
142.550096
 20
36.759161
 30
0.0
 10
143.153868
 20
36.882490
 30
0.0
 10
143.648840
 20
37.217918
 30
0.0
 10
143.983558
 20
37.713609
 30
0.0
 10
144.106565
 20
38.317730
 30
0.0
 10
144.106565
 20
45.202493
 30
0.0
 10
143.983559
 20
45.806269
 30
0.0
 10
143.648844
 20
46.301241
 30
0.0
 10
143.153872
 20
46.635956
 30
0.0
 10
142.550096
 20
46.758962
 30
0.0
  0
LWPOLYLINE
  5
10b
100
AcDbEntity
  8
0
 62
7
100
AcDbPolyline
 90
17
 70
1
 10
216.805438
 20
80.862230
 30
0.0
 10
216.684438
 20
81.442591
 30
0.0
 10
216.362270
 20
81.915836
 30
0.0
 10
215.886694
 20
82.234553
 30
0.0
 10
215.305468
 20
82.351328
 30
0.0
 10
214.724242
 20
82.234553
 30
0.0
 10
214.248665
 20
81.915836
 30
0.0
 10
213.926498
 20
81.442591
 30
0.0
 10
213.805498
 20
80.862230
 30
0.0
 10
213.926498
 20
80.281869
 30
0.0
 10
214.248665
 20
79.808624
 30
0.0
 10
214.724242
 20
79.489907
 30
0.0
 10
215.305468
 20
79.373132
 30
0.0
 10
215.886694
 20
79.489907
 30
0.0
 10
216.362270
 20
79.808624
 30
0.0
 10
216.684438
 20
80.281869
 30
0.0
 10
216.805438
 20
80.862230
 30
0.0
  0
LWPOLYLINE
  5
10c
100
AcDbEntity
  8
0
 62
7
100
AcDbPolyline
 90
17
 70
1
 10
5.882262
 20
80.862230
 30
0.0
 10
5.761262
 20
81.442591
 30
0.0
 10
5.439094
 20
81.915836
 30
0.0
 10
4.963518
 20
82.234553
 30
0.0
 10
4.382292
 20
82.351328
 30
0.0
 10
3.801066
 20
82.234553
 30
0.0
 10
3.325489
 20
81.915836
 30
0.0
 10
3.003322
 20
81.442591
 30
0.0
 10
2.882322
 20
80.862230
 30
0.0
 10
3.003322
 20
80.281869
 30
0.0
 10
3.325489
 20
79.808624
 30
0.0
 10
3.801066
 20
79.489907
 30
0.0
 10
4.382292
 20
79.373132
 30
0.0
 10
4.963518
 20
79.489907
 30
0.0
 10
5.439094
 20
79.808624
 30
0.0
 10
5.761262
 20
80.281869
 30
0.0
 10
5.882262
 20
80.862230
 30
0.0
  0
LWPOLYLINE
  5
10d
100
AcDbEntity
  8
0
 62
7
100
AcDbPolyline
 90
17
 70
1
 10
216.805438
 20
8.473142
 30
0.0
 10
216.684438
 20
9.053503
 30
0.0
 10
216.362270
 20
9.526748
 30
0.0
 10
215.886694
 20
9.845465
 30
0.0
 10
215.305468
 20
9.962240
 30
0.0
 10
214.724242
 20
9.845465
 30
0.0
 10
214.248665
 20
9.526748
 30
0.0
 10
213.926498
 20
9.053503
 30
0.0
 10
213.805498
 20
8.473142
 30
0.0
 10
213.926498
 20
7.892781
 30
0.0
 10
214.248665
 20
7.419536
 30
0.0
 10
214.724242
 20
7.100819
 30
0.0
 10
215.305468
 20
6.984044
 30
0.0
 10
215.886694
 20
7.100819
 30
0.0
 10
216.362270
 20
7.419536
 30
0.0
 10
216.684438
 20
7.892781
 30
0.0
 10
216.805438
 20
8.473142
 30
0.0
  0
LWPOLYLINE
  5
10e
100
AcDbEntity
  8
0
 62
7
100
AcDbPolyline
 90
17
 70
1
 10
5.882262
 20
8.473142
 30
0.0
 10
5.761262
 20
9.053503
 30
0.0
 10
5.439094
 20
9.526748
 30
0.0
 10
4.963518
 20
9.845465
 30
0.0
 10
4.382292
 20
9.962240
 30
0.0
 10
3.801066
 20
9.845465
 30
0.0
 10
3.325489
 20
9.526748
 30
0.0
 10
3.003322
 20
9.053503
 30
0.0
 10
2.882322
 20
8.473142
 30
0.0
 10
3.003322
 20
7.892781
 30
0.0
 10
3.325489
 20
7.419536
 30
0.0
 10
3.801066
 20
7.100819
 30
0.0
 10
4.382292
 20
6.984044
 30
0.0
 10
4.963518
 20
7.100819
 30
0.0
 10
5.439094
 20
7.419536
 30
0.0
 10
5.761262
 20
7.892781
 30
0.0
 10
5.882262
 20
8.473142
 30
0.0
  0
LWPOLYLINE
  5
10f
100
AcDbEntity
  8
0
 62
7
100
AcDbPolyline
 90
21
 70
1
 10
0.049061
 20
87.250000
 30
0.0
 10
219.649061
 20
87.250000
 30
0.0
 10
220.414083
 20
87.097934
 30
0.0
 10
221.062638
 20
86.664887
 30
0.0
 10
221.495989
 20
86.016787
 30
0.0
 10
221.648161
 20
85.252300
 30
0.0
 10
221.648161
 20
4.047300
 30
0.0
 10
221.495989
 20
3.282813
 30
0.0
 10
221.062638
 20
2.634713
 30
0.0
 10
220.414083
 20
2.201666
 30
0.0
 10
219.649061
 20
2.049600
 30
0.0
 10
0.049061
 20
2.049600
 30
0.0
 10
-0.715961
 20
2.201666
 30
0.0
 10
-1.364516
 20
2.634713
 30
0.0
 10
-1.797867
 20
3.282813
 30
0.0
 10
-1.950039
 20
4.047300
 30
0.0
 10
-1.950039
 20
85.252300
 30
0.0
 10
-1.797867
 20
86.016787
 30
0.0
 10
-1.364516
 20
86.664887
 30
0.0
 10
-0.715961
 20
87.097934
 30
0.0
 10
0.049061
 20
87.250000
 30
0.0
  0
ENDSEC
  0
SECTION
  2
OBJECTS
  0
DICTIONARY
  5
C
330
0
100
AcDbDictionary
  3
ACAD_GROUP
350
D
  3
ACAD_MLINESTYLE
350
17
  0
DICTIONARY
  5
D
330
C
100
AcDbDictionary
  0
DICTIONARY
  5
1A
330
C
100
AcDbDictionary
  0
DICTIONARY
  5
17
330
C
100
AcDbDictionary
  3
STANDARD
350
18
  0
DICTIONARY
  5
19
330
C
100
AcDbDictionary
  0
ENDSEC
  0
EOF
